Oar - Risen Chords & Tabs

 

Risen Chords & Tabs

Oar Chords & Tabs

Version: 1 Type: Tab 0 ratings
1 star 2 stars 3 stars 4 stars 5 stars
comments

Risen Tab

O.A.R.
Risen

Intro/Verse
[ Tab from: http://www.guitartabs.cc/tabs/o/oar/risen_tab.html ]
e---3---7---5--- lead into chorus -----2---|
b---3---8---5---                  -1---3---|
g---4---9---7---                  -0---2---|
d---5---9---7---                  -2-------|
a---5---7---5---                  -3-------|
E---3---7---5---                  ---------|

Chorus/Outro

e---3-----------2---|
b---3---1---1---3---|
g-------2---0---2---|
d---x---2---2-------|
a---2-------3-------|
E---3---------------| could also be played with bar chords


Questions/Comments:
joshpwc@yahoo.com

or

oarsa.org
Comments