Oar - Patiently Chords & Tabs

 

Patiently Chords & Tabs

Oar Chords & Tabs

Version: 1 Type: Tab 0 ratings
1 star 2 stars 3 stars 4 stars 5 stars
comments

Patiently Tab

   
oar
patiently


lead
rhythm plays C
       e---------|
       b---------|
       g-0-020-5-|
       d---------|
       a---------|
       e---------|

rhythm plays E min
        e------------------|
       b-5-565-3-----------|
           g---------4-----|
       d-----------5-2-----|
        a------------------|
       e-------------------|

rhythm plays F
	   e------|
	   b------|
	   g------|
	   d-020-3
	   a------|
	   e------|

rhythm plays G
       e-------------------|
           b---------3-----|
       g-----2-5---4-------|
       d-3-5---------5-----|
        a------------------|
       e-------------------|

altogether:
[ Tab from: http://www.guitartabs.cc/tabs/o/oar/patiently_tab.html ]
  C       Emin              F       g
e-------------------------------------------|
b---------5-565-3---------------------3-----|
g-0-020-5---------4---------------2-5---4---|
d-------------------5-2-020-3-3-5---------5-|
a-------------------------------------------|
e-------------------------------------------|


verse/chorus

e---8----7---8----10---|
b---8----8---8----10---|
g---9----9---10---12---|
d---10---9---10---12---|
a---10---7---8----10---|
E---8----7---8----10---|

bridge

e---5---3---1---3---|
b---5---3---1---3---|
g---5---4---2---4---|
d---7---5---3---5---|
a---7---5---3---5---|
E---5---3---1---3---|


Questions/Comments:
joshpwc@yahoo.com

or

oarsa.org
Comments