Oar - Lay Down Chords & Tabs

 

Lay Down Chords & Tabs

Oar Chords & Tabs

Version: 1 Type: Tab 0 ratings
1 star 2 stars 3 stars 4 stars 5 stars
comments

Lay Down Tab

O.A.R. (...of a revolution)
Lay Down
------------------------


Intro/middle part

e----5----|
b----5----|
g----6----|
d----7----|
a----7----|
E----5----|

Verse/Chorus
[ Tab from: http://www.guitartabs.cc/tabs/o/oar/lay_down_tab.html ]
e----5---4---2-------|
b----5---5---2-------|
g----6---6---2---1---|
d----7---6---4---2---|
a----7---4---4---2---|
E----5-------2-------|

Bridge

e------------|
b------------|
g----7-------|
d----7---7---|
a----5---7---|
E--------5---|

----------------------
Questions/Comments:
joshpwc@yahoo.com
or
oarsa.org
Comments