Oar - James Chords & Tabs

 

James Chords & Tabs

Oar Chords & Tabs

Version: 1 Type: Tab 0 ratings
1 star 2 stars 3 stars 4 stars 5 stars
comments

James Tab

Intro/Verse

e---0---0---
b---0---0---
g---1---1---
d---2---2---
a---2---0---
E---0---0---

Pre-Chorus

e---0---0---0---0--- (these are the chords, but you can figure out the
b---0---0---0---0---  single notes that are played.)
g---1---1---1---1---
d---2---2---2---2---
a---2---0---0---0---
E---0---0---2---0---

Chorus

e---0---0---0---0---0---0---2--- (listen for the rhythm)
b---0---0---0---0---0---0---3---
g---1---1---1---1---1---1---2---
d---2---2---2---2---2---2---0---
a---2---4---2---0---2---4---0---
E---0---0---0---0---0---0-------

Breakdown

e----------------------
b----------------------
g----------------------
d---9--9--9--9--9--9---
a------------7--6--7---
E---4--5--7------------

post breakdown (no lyrics)
[ Tab from: http://www.guitartabs.cc/tabs/o/oar/james_tab.html ]
e--------------------0---  (I haven't determined if the bass note
b---10---9---8---6---0---   is the one in parentheses or the ones
g----9---9---7---5---1---   on the a string.  It looks like the ones
d---(7)--6--(5)-(3)--2---   in parentheses on the DVD, but it sounds
a----7-------5---3---2---   better with the bass notes on the a string.
E--------------------0---   Play as you wish)

...you said son....

e---0---0---0---  (it sounds like he messes with these three chords
b---0---0---0---   in that order for the majority of the time.  This
g---1---1---1---   could be wrong.)
d---2---2---2---
a---4---2---0---
E---0---0---0---

Ending (same as chorus)

e---0---0---0---0---0---0---2--- (listen for the rhythm)
b---0---0---0---0---0---0---3---
g---1---1---1---1---1---1---2---
d---2---2---2---2---2---2---0---
a---2---4---2---0---2---4---0---
E---0---0---0---0---0---0-------
Comments