Oar - Dakota Chords & Tabs

 

Dakota Chords & Tabs

Oar Chords & Tabs

Version: 1 Type: Tab 0 ratings
1 star 2 stars 3 stars 4 stars 5 stars
comments

Dakota Tab

O.A.R. (...of a revolution)
The Dakota

Intro/Verse

e---4---5---|
b---5---5---|
g---6---6---|
d---6---7---|
a---4---7---|
E---4---5---|

Chorus
[ Tab from: http://www.guitartabs.cc/tabs/o/oar/dakota_tab.html ]
e-------------------|
b-------------------|
g---6---------------|
d---6---4---6---7---|
a---4---4---6---7---|
E-------2---4---5---|

Post Chorus/Outro

e---------------|
b---------------|
g-------6-------|
d---7---6---4---|
a---7---4---4---|
E---5-------2---|

Questions/comments:
joshpwc@yahoo.com
or
oarsa.org
Comments