Oar - Black Rock Chords & Tabs

 

Black Rock Chords & Tabs

Oar Chords & Tabs

Version: 4 Type: Tab

Black Rock Tab

   
-------------------------------------------------------------------------------
			     Black Rock - O.A.R.
-------------------------------------------------------------------------------
Tabbed by: SRVisgod89
Email: hooserdaddy2003@yahoo.com

Song: Black Rock solo
Album: The Wanderer
Tuning: standard

     first tab...this is exactly how i play it. it matches note for note when i
play along with the song. listen to the song for the rythym. peace and love
  
e|------------------------------------------10---10-9-9-7----------------|
B|---------------------------------7-7h10p7---------------10--8-7h8p7----|
G|-------------7-9-7-9^11-7---7---------------------------------------9--|
D|--------7-9---------------9--------------------------------------------|
A|--5-7/9----------------------------------------------------------------|
E|-----------------------------------------------------------------------|

e|-----------------------------------------------------------------------|
B|----------------------------------------------------7-8-8-8/10-8-7h8p7-|
G|------7-9-7-9^11-7--(7)----7-9-7-9^11-7-7-7~~~7-7h9--------------------|
D|--7h9------------------7h9---------------------------------------------|
A|-----------------------------------------------------------------------|
E|-----------------------------------------------------------------------|
[ Tab from: http://www.guitartabs.cc/tabs/o/oar/black_rock_tab_ver_4.html ]
e|-----------------------------------------------------------------------|
B|-----------------------------------------------------------------------|
G|--6-6/7-7-7~~-7/9-9-11-12-14-16/18-18-18-18-18/19-18-16-18-------------|
D|-----------------------------------------------------------------------|
A|-----------------------------------------------------------------------|
E|-----------------------------------------------------------------------|

e|-----------------------------------------------------------------------|
B|-----------------------------------------------------------------------|
G|--18-18h19p18-16h18p16-14h16p14-12h14p14-11h12p11-9h11p9-7h9p7---------|
D|-----------------------------------------------------------------------|
A|-----------------------------------------------------------------------|
E|-----------------------------------------------------------------------|

e|-----------------------------------------------------------------------|
B|--------7-8-7-7--------------------------------------------------------|
G|--6-7-9---------9------------------------------------------------------|
D|-----------------------------------------------------------------------|
A|-----------------------------------------------------------------------|
E|-----------------------------------------------------------------------|


| /  slide up
| h  hammer-on
| p  pull-off
| ~  vibrato
| ^  bend up