Oar - Anyway Chords & Tabs

 

Anyway Chords & Tabs

Oar Chords & Tabs

Version: 3 Type: Tab 0 ratings
1 star 2 stars 3 stars 4 stars 5 stars
comments

Anyway Tab

   
"Anyway" 
O.A.R.
Album: Any Time Now (Live)
 

Here is the live verison to "Anyway."

INTRO:

    E E  E/G#  E  A  B
e|--0-0---0----0--0--1----|
B|--0-0---0----0--2--3----|
G|--1-1---1----1--2--3----|  (Repeat Twice)
D|--2-2---2----2--2--3----|
A|--2-2---2----2-----1----|
E|--------3---------------|


then...

[ Tab from: http://www.guitartabs.cc/tabs/o/oar/anyway_tab_ver_3.html ]
e|-0--0--0--0--1~--|
B|-9--4--9--2--3~--|
G|-9--4--9--2--3~--|  (Repeat TWICE)
D|-9--4--9--2--3~--|
A|-------------1~--|
E|-----------------|

VERSE

E A B

CHORUS

e|-0--0--0--0--1~--|
B|-9--4--9--2--3~--|
G|-9--4--9--2--3~--|  (Repeat as many times as needed)
D|-9--4--9--2--3~--|
A|-------------1~--|
E|-----------------|

BRIDGE

e|---------|
B|--2--4/9-|
G|---------|  (Repeat)
D|---------|
A|---------|
E|---------|




there ya go
Comments