Oar - About An Hour Ago Chords & Tabs

 

About An Hour Ago Chords & Tabs

Oar Chords & Tabs

Version: 1 Type: Tab 0 ratings
1 star 2 stars 3 stars 4 stars 5 stars
comments

About An Hour Ago Tab

Author/Artist: Oar 
Title: About an Hour ago 
Album: The Wanderer 
Transcribed by: Sam Markham 
Email: SSAM828@aol.com 

This song is very simple...if you listen to the music 
you can easily put the chords into the rythum 
I started you out with the first verse and the rest of 
the song continues in the same way 

-3---------------------------------------------------------------------------- 
-1---------------------------------------------------------------------------- 
-0---------------------------------------------------------------------------- 
-2---------------------------------------------------------------------------- 
-3---------------------------------------------------------------------------- 
-0---------------------------------------------------------------------------- 
There was a man on the road about an hour ago                                 

-1---------------------------------------------------------------------------- 
-3---------------------------------------------------------------------------- 
-2---------------------------------------------------------------------------- 
-0---------------------------------------------------------------------------- 
------------------------------------------------------------------------------ 
------------------------------------------------------------------------------ 
And he was looking for a ride to New Mexico                                   

-1----------------------------3----------------------------------------------- 
-1----------------------------1----------------------------------------------- 
-2----------------------------0----------------------------------------------- 
-3----------------------------2----------------------------------------------- 
-0----------------------------3----------------------------------------------- 
------------------------------0----------------------------------------------- 
We dive by way to fast to know                                                
[ Tab from: http://www.guitartabs.cc/tabs/o/oar/about_an_hour_ago_tab.html ]
-3---------------------------------------------------------------------------- 
-1---------------------------------------------------------------------------- 
-0---------------------------------------------------------------------------- 
-2---------------------------------------------------------------------------- 
-3---------------------------------------------------------------------------- 
-0---------------------------------------------------------------------------- 
Then we got to the place on a high speed chase                                

-1---------------------------------------------------------------------------- 
-3---------------------------------------------------------------------------- 
-2---------------------------------------------------------------------------- 
-0---------------------------------------------------------------------------- 
------------------------------------------------------------------------------ 
------------------------------------------------------------------------------ 
There was a girly in the coner witht he plastic face                          

-1-------------------------------3-------------------------------------------- 
-1-------------------------------1-------------------------------------------- 
-2-------------------------------0-------------------------------------------- 
-3-------------------------------2-------------------------------------------- 
-0-------------------------------3-------------------------------------------- 
---------------------------------0-------------------------------------------- 
Then she disapeared without a trace....i siad without a trace                 

------------------------------------------------------------------------------ 
------------------------------------------------------------------------------ 
------------------------------------------------------------------------------ 
------------------------------------------------------------------------------ 
------------------------------------------------------------------------------ 
------------------------------------------------------------------------------ 
The song countinues with this chord porgression....                           
==
Comments