Oar - 52-50 Chords & Tabs

 

52-50 Chords & Tabs

Oar Chords & Tabs

Version: 1 Type: Tab 0 ratings
1 star 2 stars 3 stars 4 stars 5 stars
comments

52-50 Tab

O.A.R. (...of a revolution)
52-50


Intro/Post Chorus/Outro

e---------    -----------|
b---------    -----------|
g--------- or -------1---|
d---------    ---4---2---|
a---------    ---4---2---|
E---2-0---    ---2---0---|

Verse
[ Tab from: http://www.guitartabs.cc/tabs/o/oar/52_50_tab.html ]
e-----5-----5-----2-----0---|
b-----5-----5-----2-----0---|
g-----6-----6-----2-----1---|
d-----7-----7-----4-----2---|
a-----7-----7-----4-----2---|
E-----5--4--5--4--2-----0---|

Chorus

e--------------- (x2) ----------------------|
b---------------      ----------------------|
g---------------      ---7---6---4----------|
d---4---6---7---      ---7---7---4(9)---6---|
a---4---7---7---      ---5---4---2(9)---7---|
E---2---4---5---      ------------(7)---4---|

Questions/Comments:
joshpwc@yahoo.com
-or-
oarsa.org
Comments