O Zone - Dragostea Din Tei Chords & Tabs

 

Dragostea Din Tei Chords & Tabs

O Zone Chords & Tabs

Version: 1 Type: Tab 0 ratings
1 star 2 stars 3 stars 4 stars 5 stars
comments

Dragostea Din Tei Tab

                    
e|-------------5--------------3--------------3---------------------7-----|
B|---3-----3--------3------3-------3------3----------------------------5-|
G|------5---------------5-------------5---------------5---4---7----------|
D|-----------------------------------------------------------------------|
A|-----------------------------------------------------------------------|
E|-----------------------------------------------------------------------|


Dragostea din tei
[ Tab from: http://www.guitartabs.cc/tabs/o/o_zone/dragostea_din_tei_tab.html ]
    Alo,          Salut,           Sunt eu,           un haiduc
e|-------------------------------------------------------3-----------------|
B|---1---------------------------------1-----------------3-- --------------|
G|---2-------------2-------------------0-----------------0-----------------|
D|---2-------------3-------------------2-----------------0-----------------|
A|---0-------------3-------------------3-----------------2-----------------|
E|---0-------------1-------------------------------------3-----------------|

This are all the chords  used in the song just keep going and keep singing is so easy

Some kind of solo

e|-------------5--------------3--------------3---------------------7-----|
B|---3-----3--------3------3-------3------3----------------------------5-|
G|------5---------------5-------------5---------------5---4---7----------|
D|-----------------------------------------------------------------------|
A|-----------------------------------------------------------------------|
E|-----------------------------------------------------------------------|
Comments