O-zone - Despre Tine Chords & Tabs

 

Despre Tine Chords & Tabs

O-zone Chords & Tabs

Version: 1 Type: Tab 0 ratings
1 star 2 stars 3 stars 4 stars 5 stars
comments

Despre Tine Tab

   
O-zone
Despre tine

Intro  :)
e------------------------------------------0---------|
B----------------------------0--1--1--0--1----3--0---|
G---2--2--2--0--2--2--0--2-------------------------0-|
D----------------------------------------------------|
A----------------------------------------------------|
E----------------------------------------------------|

e-----------------------------------------0----------|
B--------------------------0--1--1--0--1-----3--0----|
G---0--1--2--2--2--2--0--2-------------------------0-|
D-2--------------------------------------------------|
A----------------------------------------------------|
E----------------------------------------------------|

Am                     F
Ma trezesc cu tine in gind,
C		       G
Despre tine vreau sa cint,
Melodia mea de dor,
Care ma face tutuor.

Nu raspunsi la SMS,
Eu iti scriu atit de des,
Poate ma-m purtat urit,
Dar sa sti ca ti-am iubit!
[ Tab from: http://www.guitartabs.cc/tabs/o/o_zone/despre_tine_tab.html ]
Ref:
Am                  F
Ma innec in ochii tai,
F            C
La la la la lei,
C                  G
Plinge lumia dupa iei,
G          Am
La la la la lei,
Iesti un inger pa pamint,
Despre tine cint,
Si zi si noapte,
La la lei [2x]

Daca mergi cu mine in viz,
Am sa te inveti sa riz,
Si am sa scriu pina in sod,
Plinge lumia dupa dur

Nu raspunsi la SMS,
Eu iti scriu atit de des,
Poate ma-m purtat urit,
Dar sa sti ca ti-am iubit!

Ref...

4x
e-----------------------------------------0----------|
B--------------------------0--1--1--0--1-----3--0----|
G---0--1--2--2--2--2--0--2-------------------------0-|
D-2--------------------------------------------------|
A----------------------------------------------------|
E----------------------------------------------------|

2x
e----------------------------------------------------|
B----------1---------------------1-------------------|
G----0h2------2--0--2p0-----0h2-----2--0--0p2--------|
D--2---------------------2---------------------2-----|
A----------------------------------------------------|
E----------------------------------------------------|

2x

e----------------------------------------------------|
B--1--1--1--0--------1--1--1--0----------------------|
G--------------0-----------------0-----0-------------|
D-----------------2-----------------2----------2-----|
A----------------------------------------------------|
E----------------------------------------------------|

Ref...
Comments