Nyoy Volante - What Do I Do Chords & Tabs

 

What Do I Do Chords & Tabs

Nyoy Volante Chords & Tabs

Version: 1 Type: Tab 0 ratings
1 star 2 stars 3 stars 4 stars 5 stars
comments

What Do I Do Tab

What Do I Do

Nyoy Volante

|--------------------------------------------------|
|Tabbed by Don Michael Acelar De Leon, 15 years old|
|--------------------------------------------------|

Standard Tuning, |EADGBE|


Intro

	    
E|-------------------0--|------2--3p2-5-----------|
B|--3-2-3----------3----|-----3-------------------|
G|--------2------2------|----2--------------------|
D|-------------0--------|---4---------------------|
A|----------------------|--2----------------------|
E|-----------2----------|-------------------------|
   	
E|------3p2----|-3p2------------|-------5---------|
B|-----3----2--|-----3----2h3-5-|------2----------|
G|----0--------|-------2--------|-----2-----------|
D|---x---------|----------------|----2------------|
A|--2----------|----------------|---x-------------|
E|-0-----------|----------------|--3--------------|


Verse
				    
"What would you do...if I told you that.."

E|-0--2-----|
B|-3--3-----|
G|-2--2-----|
D|-0--4-----|
A|----2-----|
E|----------|

	    			    	
"All that I do is think of what we had.."

E|-7-7---------|
B|-8-10--3-2---|
G|-7-7---2-2---|
D|-9-9---2-2---|
A|-7-7---0-x---|
E|---------3---|

"What would you do.. if I'm not the friend I used to be.."

E|-0--------|
B|-0--2--1--|
G|-2--2--2--|
D|-2--2--1--|
A|-x--3--2--|
E|-2--------|
      *
*|-3222-| may also be played as |-2222-| or |-4222-|
  	
"Well, at least.. not to me.."

E|-0--3------------|
B|-3--3--5---------|
G|-0-----2---------|
D|-x-----2---------|
A|-2--1------------|
E|-0-----4---------|

"Cause I can't get over all the times you stayed.."

E|-2-------------|
B|-3--3--3--3--5-|
G|-0--2--0--2--2-|
D|-0--0--2--2--2-|
A|-x--x--2--0----|
E|-3--2--0-----4-|

"Now I'm someone different from the one you knew.."
		     
		     |--"to feel for you.."
		     |		
E|-2-----2--3------|-----2-3-2-0---|------3-----|
B|-3--3--3--3------|---3---------0-|-1---1------|
G|-0--2--2--0--0---|-0-------------|-2--2-------|
D|-0--0--4--2--0---|---------------|-2-0--------|
A|-x--x--2--2--x---|---------------|-0----------|
E|-3--2-----0--3---|---------------|------------|


Chorus

"What do I do.. I keep caling out your name.."
[ Tab from: http://www.guitartabs.cc/tabs/n/nyoy_volante/what_do_i_do_tab.html ]
E|-2--0--0--2-------|
B|-3--2--0--3-------|
G|-0--2--2--2-------|
D|-0--2--2--4-------|
A|-x--0--x--2-------|
E|-3-----2----------|

"What do I do.. I've got no one else to blame.."

E|-2--0--0--3-------|
B|-3--2--1--1-------|
G|-0--2--2--2-------|
D|-0--2--2--0-------|
A|-x--0--0----------|
E|-3----------------|

"What do I do.. Everytime I hold your hand, it's not the same.."

E|-2-----2----------|
B|-3--2--2--3-------|
G|-0--3--3--0-------|
D|-0--2--4--2-------|
A|-x--x--2--2-------|
E|-3--2-------------|

"What do I do.. I think I fell in love with you.." 

E|-3--3--2---------|
B|-3--3--3---------|
G|-0--3--2---------|
D|-2--5--0---------|
A|-2--5------------|
E|-0---------------|

Verse 2: start with |2-2200-| instead of |--0230|


Bridge

          "I don't know what to do.."
	  |
	  |
E|-3--0-|-0--2---0--0--x------0--3--|
B|-3--3-|-0--2---0--0--3------1--1--|
G|-0--2-|-2--3---0--2--0------2--2--|
D|-2--2-|-2--4---2--2--0------2--0--|
A|-2--0-|-x--2---2--x--x------0-----|
E|-0----|-2------0--2--3------------|

Repeat Chorus

Last Part

   |--"I think I fell in love with you.."
   |
E|-3-----------------------------------3-|
B|-3------3--------3-------3----------3--|
G|-3-------------2-------2-----------3---|
D|-5----0---------------------------5----|
A|-5-------------------------------5-----|
E|----3------3-2-----2-1------1-0--------|

"What do I..do.."

E|--------------(0)-(2h3)-(2)-(3p2p0)-------|
B|---3-------(3)----------------------(4/5~)|
G|--2-----(2)-------------------------------|
D|-0----------------------------------------|
A|------------------------------------------|
E|------------------------------------------|

Ayala Homes Plaza, May 17, 2004.

My warmest thanks to:

Eric Ebia, Jr, Bassist and Friend, Assonance and Resonance
Hanz Billy John Magat, Drummer and Friend, Assonance and Resonance
Francis Vincent Co, Rhythm Guitarist and Best Friend, Assonance
Jodessa Piloton, Lead Vocalist and Best Friend, Assonance
Reinzy Colle, Math Genius and Best Friend
John Santos, Lead Guitarist, Master and Friend, Invictus

And...

Janie Maye Mamangon (belated!)
Camille Vanessa Vidad (Para sa iyo ang susunod kong tab!)
Maria Christina Santiago Reyes (This is for you..)

CopyrightŪ 2004 by Don Michael Acelar De Leon. All Rights Reserved.
Comments