Nyoy Volante - Simple Lang Talaga Chords & Tabs

 

Simple Lang Talaga Chords & Tabs

Nyoy Volante Chords & Tabs

Version: 1 Type: Tab 0 ratings
1 star 2 stars 3 stars 4 stars 5 stars
comments

Simple Lang Talaga Tab

   
Simple Lang Talaga feat. Ogie Alcasid

Nyoy Volante
Tabbed by Don Michael Acelar De Leon
 donmichael001@yahoo.com


Standard Tuning, |EADGBE|

Intro	    
E|(0)--4--(0)--0---------------|(0)--4---5~--|
B|(0)--5--(0)--0---------------|(0---5---5~--|
G|-4---4---2---2---------------|-4---4---6~--|
D|-4---6---2---2--(three times)|-4---6---7~--|
A|-x---4---x---2---------------|-x---4-------|
E|-4-------2-------------------|-4-----------|

Verse

"Simple lang ang porma ng pag-ibig ko.."

E|(0)--4--(0)--0--|
B|(0)--5--(0)--0--|
G|-4---4---2---2--|
D|-4---6---2---2--|
A|-x---4---x---2--|
E|-4-------2--(0)-|

"Oh, lumilipad ang damdaming ito..."

E|-2--3--|
B|-3--3--|
G|-0--0--|
D|-0--2--|
A|-x--3--|
E|-3-----|

"Tinatangay ng hangin tungo sa iyo..."

E|-2--0--|
B|-0--2--|
G|-1--1--|
D|-1--2--|
A|-2--0--|
E|-0-(0)-|

"Giliw ko.."

E|-6--4--|
B|-7--4--|
G|-6--5--|
D|-8--6--|
A|-6--x--|
E|-6--4--|

Chorus

"Simple lang talaga.."

E|-4--4--4-|
B|-2--1--2-|
G|-3--1--1-|
D|-4--1--3-|
A|-x--3--1-|
E|-2-------|

"..at tutuloy ako.."

E|-0-----|-0-x-0--|--h.5~--|
B|-0-----|-0-x-0--|
G|-4-----|-2/3/4\-|
D|-4-----|-2/3/4\-|
A|-2-----|-x/x/x\-|
E|(2)----|-2/3/4\-|

Verse

Chorus


Interlude

Lead-in

E|-----------------------------|------------------------|
B|-----------------------------|------------------------|
G|---p.12rb11-9----9--p.9~ ----|--------9----9h11-11-11-|
D|--------------11---------11\-|-9-9h11---11------------|
A|-----------------------------|------------------------|
E|-----------------------------|------------------------|
[ Tab from: http://www.guitartabs.cc/tabs/n/nyoy_volante/simple_lang_talaga_tab.html ]
E|-------12~~--------------------------------------|
B|-12h14------P.-/12~~-----------------------------|
G|------------P.-/13~~---P.-12rb11)9----9----------|
D|-----------------------------------11---9h11-9~~\|
A|-------------------------------------------------|
E|-------------------------------------------------|

E|-------12----12h14-14b16-16rb14--12h14-12~~-|---------------------|
B|-12h14----14--------------------------------|12h14-12~~\-12\14~~\-|
G|--------------------------------------------|------------11\13~~\-|
D|--------------------------------------------|---------------------|
A|--------------------------------------------|---------------------|
E|--------------------------------------------|---------------------|

E|---------------------------------------12---------------|
B|-------------p.10p9--------------12/14----12h14-12~~----|
G|--------------------9---9h11--11------------------------|
D|-9h11-p.9~~\----------9---------------------------------|
A|---------------------------------------------------(11)-|
E|--------------------------------------------------------|

Refrain

Chorus, Fade out

Legend
-------------
h=hammer-on
p=pull-off
/=slide to (fret number)
\=slide back
b=bend
rb=release bend
h.=harmonic
~=slight vibrato
~~=emphasized vibrato
p.=pop (slighty pull string up with thumb and index finger, causing a *pop* 
        sound)
( )=optional note
------------

Manor, TX. September 29, 2004, 7:33 PM

My warmest thanks to:

AFS INTERCULTURAL PROGRAMS PHILIPPINES

REPUBLIC OF THE PHILIPPINES
Division of City Schools of Makati
Mayor Jejomar C Binay
Ms Elena R Ruiz

MAKATI SCIENCE HIGH SCHOOL 
Eric Ebia, Jr 
Hanz Billy John Magat
Mga Tropa ng BsP (BiSYo Na 'TO!!!)
Senior Class of 2005
IV-Sir Isaac Newton
Francis Vincent Co
Jodessa Piloton
Reinzy Colle
John Santos
Janie Maye Mamangon
Camille Vanessa Vidad
Maria Christina Santiago Reyes

J.A.S.B. 2004 

CopyrightŪ 2004 by Don Michael Acelar De Leon. All Rights Reserved.
Comments