Nyoy Volante - Nasaan Chords & Tabs

 

Nasaan Chords & Tabs

Nyoy Volante Chords & Tabs

Version: 6 Type: Tab 0 ratings
1 star 2 stars 3 stars 4 stars 5 stars
comments

Nasaan Tab

   
Nasaan

Nyoy Volante

|--------------------------------------------------|
|Tabbed by Don Michael Acelar De Leon, 15 years old|
|--------------------------------------------------|

Standard Tuning, |EADGBE|

Intro

Bass-in (arrangement for guitar)

E|-----------------|------------|------------------|
B|-----------------|------------|------------------|
G|-----------------|------------|------------------|
D|----2--/4--/6----|--/2--4--/6~|------/2---/6--\4~|
A|-/4--------------|------------|--/4--------------|
E|-----------------|------------|------------------|

  
E|-0---0---0----4--4-------|--0--0--------4--|
B|-0---0---0----4--5-------|--0--0--------5--|
G|-2---4---4----6--6-------|--2--4--------6--|
D|-2---4---4----6--6-------|--2--4--------6--|
A|-0---2---x----4--4-------|--0--2--------x--|
E|(0)------4---(4)(4)------|-(0)------2/--6--|

Verse

"Hatinggabi.. 'di mapakali.. di makatulog, di makangiti"

E|-0---0---0----4--4----7-7/----|--0---0---0----4--4--|
B|-0---0---0----4--5----5-5/----|--0---0---0----4--5--|
G|-2---4---4----6--6----6-6/----|--2---4---4----6--6--|
D|-2---4---4----6--6----6-6/----|--2---4---4----6--6--|
A|-0---2---x----4--4----4-4/----|--0---2---x----4--4--|
E|(0)------4---(4)(4)-----------|-(0)------4---(4)(4)-|


Refrain

"Sabi mo'y ako hanggang muling magkita.."

E|--0--0--0---|       Lead-in E|---------4-5-4~~--7h9-7~--|
B|--0--0--0---|		      B|----5h7-------------------|
G|--2--4--2---|		      G|--4-----------------------|
D|--2--4--2---|		      D|--------------------------|
A|--x--x--0---|		      A|--------------------------|
E|--2--4-(0)--|		      E|--------------------------|

"Bakit ngayo'y nasa piling ng iba.."

E|--0---0---2---0---|
B|--0---0---3---0---|
G|--2---4---4---1---|
D|--2---4---4---2---|
A|--x---x---2---2---|
E|--2---4--(2)--0---|


Chorus

E|-0---0---0----4--4----7-7/----|--0---0---0----4--4--|
B|-0---0---0----4--5----5-5/----|--0---0---0----4--5--|
G|-2---4---4----6--6----6-6/----|--2---4---4----6--6--|
D|-2---4---4----6--6----6-6/----|--2---4---4----6--6--|
A|-0---2---x----4--4----4-4/----|--0---2---x----4--4--|
E|(0)------4---(4)(4)-----------|-(0)------4---(4)(4)-|


"Nasaan ka na..."

E|---0----0--------4--|
B|---0----0--------5--|
G|---2----4--------6--|
D|---2----4--------6--|
A|---0----2--------x--|
E|--(0)--------2/--6--|


Verse 2--Same as Verse 1
[ Tab from: http://www.guitartabs.cc/tabs/n/nyoy_volante/nasaan_tab_ver_6.html ]
"Di mawaglit..di malayo.."

Lead-in
E|--4-5h7~--5p4----------------------|
B|---------------7-5--4h5-5h7-5~~----|
G|-----------------------------------|
D|-----------------------------------|
A|-----------------------------------|
E|-----------------------------------|

"Di maniwala..di ka na akin.."

Lead-in
E|--5p4--------2h4---------7-7/--|
B|-------5----------5------5-5/--|
G|----------4----------4---6-6/--|
D|-------------------------6-6/--|
A|-------------------------4-4/--|
E|-------------------------------|


Chorus

"Nasaan ka na...aah...ah...wooohoowoow.."

E|-0----0----0------0-0--|-4-----|
B|-0----0----0------0-0--|-5-----|
G|-2----4----2------4-4--|-6-----|
D|-2----4----2------4-4--|-6-----|
A|-x----x----0------2-x--|-4-----|
E|-2----4---(0)-------4--|-------|



Bridge

"Di ba't pangako mo, ika'y babalik.."

E|-4-x-4-x-4--0~--|
B|-5-x-5-x-5--0~--|
G|-6-x-5-x-4--2~--|
D|-6-x-6-x-6--2~--|
A|-4-x-4-x-4--0~--|
E|-----------(0)--|

"Naaaaaa....aaaasaan ka na? Di ba't pangako'y.."

E|-0--------4--|-0---0--0--|
B|-0--------5--|-0---0--0--|
G|-4--------6--|-2---4--4--|
D|-4--------6--|-2---4--4--|
A|-2--------x--|-0---2--x--|
E|------2/--6--|(0)-----4--|

"Babalik ka?"

Lead-in

E|-14/12--xxx-12/11--xxx--------------------------x----|
B|-12/10--xxx-10/9---xxx--------------------------x----|
G|------------------------12/10-xxx-10p9--7--7h9--x----|
D|------------------------11/9--xxx--9----9---9---x----|
A|------------------------------------------------x----|
E|------------------------------------------------x----|


"Ako'y iniwan na..."

E|-0~--0~--4~---|
B|-0~--0~--6~---|
G|-2~--4~--5~---|
D|-2~--4~--6~---|
A|-0~--2~--4~---|
E|(0)~----------|


IV-Einstein, January 31, 2004, 4:35 PM


Legend
-------------
h= hammer
p= pull
/= slide to (fret number)
\= slide back to (fret number)
~= vibrato

My warmest thanks to:

Eric Ebia, Jr, Bassist and Friend, Assonance and Resonance
Hanz Billy John Magat, Drummer and Friend, Assonance and Resonance
Francis Vincent Co, Rhythm Guitarist and Best Friend, Assonance
Jodessa Piloton, Lead Vocalist and Best Friend, Assonance
Reinzy Colle, Math Genius and Best Friend
John Santos, Lead Guitarist, Master and Friend, Invictus

And...

Janie Maye Ayran Mamangon (!_!)
Camille Vanessa Ariola Vidad (This is for you..;-))
Maria Christina Santiago Reyes (**,)
Comments