Nyoy Volante - Nasaan Chords & Tabs

 

Nasaan Chords & Tabs

Nyoy Volante Chords & Tabs

Version: 5 Type: Tab 0 ratings
1 star 2 stars 3 stars 4 stars 5 stars
comments

Nasaan Tab

June 6, 2004
Nasaan - Nyoy Volante and the Manos
tabbed by Mako Torres
email: tito_puento@yahoo.com

 100% correct! this is the tab you've been lookin for...but don't they all say that? 
just try it and see for yourself. enjoy!

Intro
|--0----0----0----0--------0----0-----------0---------------|
|--0----0----0----5--------0----0-----------2---------------|
|--2----2----x----4--------2----2--(pause) -3---(let ring)--|
|--2----2----4----6--------2----2-----------2---------------|
|--0----2----6----4--------0----2-----------1---------------|
|--x----0----4----x--------x----0-----------x---------------|
(note: 464x00 may look wierd but it can be done.. just use two fingers (the index
and  ring finger) then raise the base part of your index finger to free up the two
bottom it should still be slightly touching the B string to mute it. fretting
these chords correctly will make the whole riff sound like just one chord which
matches the original song perfectly.

Verse
|--0----0----0----0-----|
|--0----0----0----5-----|
|--2----2----x----4-----| X2
|--2----2----4----6-----|
|--0----2----6----4-----|
|--x----0----4----x-----|


Pre chorus
|--0----0----0---|  |--0----0----0----0--|
|--0----0----0---|  |--0----0----0----2--|
|--x----x----2---|  |--x----x----8----3--|
|--2----4----2---|  |--2----4----9----2--|
|--4----6----0---|  |--4----6----9----1--|
|--2----4----x---|  |--2----4----7-------|
[ Tab from: http://www.guitartabs.cc/tabs/n/nyoy_volante/nasaan_tab_ver_5.html ]
Chorus1                        Then  ---------------------------------|
|--0----0----0----0--|         |----0--------0----------0-------------|
|--0----0----0----5--|         |----0--------0----------2-------------|
|--2----2----x----4--| X2      |----x--------2-(pause) -3-(let ring)--|
|--2----2----4----6--|         |----2--------2----------2-------------|
|--0----2----6----4--|         |----4--------2----------1-------------|
|--x----0----4----x--|         |----2--------0----------x-------------|

(note: x123200 is always the median chrord in most transitions between intro's and 
chorus to verses etc) use it as a marker to start off the next verse.


Verse2
Pre chorus
Chorus2

Then immediately after the second chorus play:
|----0----0----0----0--|
|----0----0----0----0--|
|----x----x----2----8--|
|----2----4----2----9--|
|----4----6----0----9--|
|----2----4----x----7--|

      Di ba't pangako mo........babalik...
|---0----0------------0----0--------0---|
|---5----5------------5----2--------0---|
|---4----4------------2----3--------2---|
|---6----6------------4----2--------2---|
|---4----3------------2----1--------0---|
|---x----x------------x----x--------x---|

Naaaaaaaasaaaaaaaaaaa.......
|---0-----------0-----------|
|---0-----------2-----------|
|---2-----------3-----------|
|---2-----------2-----------|
|---2-----------1-----------|
|---x-----------------------|

aaaaan. ka na... (and so on)
|--0----0----0----0--------|
|--0----0----0----5--------|
|--2----2----x----4--------| X3
|--2----2----4----6--------|
|--0----2----6----4--------|
|--x----0----4----x--------|

Ako'y iniwan na
|------------0-----0----4----|
|------------0-----0----5----|
|------------2-----2----4----|
|------------2-----2----6----| End
|------------0-----2----7----|
|------------x-----x----4----|
Comments