Nyoy Volante - Nasaan Chords & Tabs

 

Nasaan Chords & Tabs

Nyoy Volante Chords & Tabs

Version: 4 Type: Tab 0 ratings
1 star 2 stars 3 stars 4 stars 5 stars
comments

Nasaan Tab

NASAAN
Nyoy Volante

johnsantos_17@yahoo.com

standard tuning: (EADGBE)

Intro:

E-----------|--0--0--4--444-|--0--0-0-
B-----------|--2--0--4--545-|--2--0-5-
G-----------|--1--4--4--444-|--1--4-4-
D-------2-4-|--2--4--4--666-|--2--4-4-
A-2sl/4-----|--0--2--6--444-|--0--2-2-
E-----------|--------4------|---------

Verse:

E-0--0--4--4447---------
B-2--0--4--5455---------
G-1--4--4--4444---------
D-2--4--4--6666--------- play 2x
A-0--2--6--4444---------
E-------4---------------

Pre-chorus:

E--2--4--0--0-0--------------
B--2--4--0--4-5--------------
G--2--4--4--4-4--------------
D--2--4--4--4-4--------------
A--4--6--2--2-2--------------
E--2--4----------------------

Chorus:
[ Tab from: http://www.guitartabs.cc/tabs/n/nyoy_volante/nasaan_tab_ver_4.html ]
E----0--4--4-4-4-7-
B-2--0--4--5-4-5-5-
G-1--4--4--4-4-4-4-
D-2--4--4--6-6-6-6- play 2x
A-0--2--6--4-4-4-4-
E-------4----------

Adlib:

E-2--4--0-0-
B-2--4--0-5-
G-2--4--4-4-
D-2--4--4-4-
A-4--6--2-2-
E-2--4------

2nd verse:

E-0--0--4--4447---------
B-0--0--4--5455---------
G-2--4--4--4444---------
D-2--4--4--6666--------- play 2x
A-0--2--6--4444---------
E-------4---------------

2nd pre-chorus:

E--2--4--2--0-0--
B--2--4--3--0-0--
G--2--4--2--2-1--
D--2--4--4--2-2--
A--4--6--2--2-2--
E--2--4-----0-0--

2nd Chorus:

E-0--0--4--4-4-4-7-
B-0--0--4--5-4-5-5-
G-2--4--4--4-4-4-4-
D-2--4--4--6-6-6-6- play 2x
A-0--2--6--4-4-4-4-
E-------4----------

Bridge:

E-4--4--2--4--0-0-----
B-5--5--2--4--0-5-----
G-4--4--2--4--4-4-----
D-6--6--2--4--4-4-----
A-4--4--4--6--2-2-----
E-------2--4----------

=====()w&_17=====
Comments