Nyoy Volante - Nasaan Chords & Tabs

 

Nasaan Chords & Tabs

Nyoy Volante Chords & Tabs

Version: 3 Type: Tab 0 ratings
1 star 2 stars 3 stars 4 stars 5 stars
comments

Nasaan Tab

   
Intro and Verses:
                 A9      B      B/G#    C#m
E--------------------------------------------------
B-----------------0----------------------5---------
G-----------------2------4-------4-------6---------
D--------2---4----2------4-------4-------6---------
A--/3-3-----------0------2-------x-------4---------
E--------------------------------4-----------------

For the intro: Just play A9 one more time then pause.
[ Tab from: http://www.guitartabs.cc/tabs/n/nyoy_volante/nasaan_tab_ver_3.html ]
Pre-chorus:
E--------------------------------------------------r
B-------------------------------5------------------e
G-----------2--------4----------6------------------p
D-----------2--------4----------6------------------e
A-----------x--------x----------4------------------a
E-----------2--------4-----------------------------t
           2cts     2cts       4cts

2nd chorus; Nasaan ka na... ah... oohh...
E--------------------------------------------------
B-------------------------------0------------------
G-----------2--------4----------2------------------
D-----------2--------4----------2------------------
A-----------x--------x----------0------------------
E-----------2--------4-----------------------------
          2cts      2cts       4cts

Bridge:
E--------------------------------------------------
B-------------------------------0------------------
G-----------2--------4----------2------------------
D-----------2--------4----------2------------------
A-----------x--------x----------0------------------
E-----------2--------4-----------------------------
           4cts     4cts       4cts

Hope u like it.
Comments