Nyoy Volante - Nasaan Chords & Tabs

 

Nasaan Chords & Tabs

Nyoy Volante Chords & Tabs

Version: 1 Type: Tab 0 ratings
1 star 2 stars 3 stars 4 stars 5 stars
comments

Nasaan Tab

   
Nasaan 
by Nyoy Volante (Philippine singer)
tabbed by dlph corp.

Intro

E|-------------2-2-x-2-2-2---------------2-2-x--2-2-2------|
A|-------------2-2-x-2-2-2---------------2-2-x--2-2-2------|
D|-------------2-2-x-2-2-2---------------2-2-x--2-2-2------|
G|----------2--2-2-x-2-2-2------------2--2-2-x--2-2-2------|
B|----3--5----------------------3--5-----4-4-x--4-4-4------|
E|-/5------------------------------------------------------|
	       A			 A/C#
[ Tab from: http://www.guitartabs.cc/tabs/n/nyoy_volante/nasaan_tab.html ]
E|---------------4-4-x-4-4-4----------4-4-x-4-4-4-4-4------|
A|---------------4-4-x-4-4-4----------5-5-x-5-5-5-5-5------|
D|---------------4-4-x-4-4-4----------4-4-x-4-4-4-4-4------|
G|---------------4-4-x-4-4-4----------6-6-x-6-6-6-6-6------|
B|-0--3--5\7--5--6-6-x-6-6-6----------4-4-x-4-4-4-4-4------|
E|---------------------------------------------------------|
		C#/D#		          C#m7  

E|---------------------2------2----------------------------|
A|--2-2-x-2-2-2--------2------2----------------------------|
D|--2-2-x-2-2-2--------2------2----------------------------|
G|--2-2-x-2-2-2--------2------2----------------------------|
B|---------------------4------4----------------------------|
E|---------------------------------------------------------|	
      A			F#m7

sorry not it's not finish yet but dont worry i'll try to complete it by next week

for the strumming, just listen to the song carefully  
 
dedicated to all PUP-taguig BSIT 2-1 and specially to my girlfriend
Comments