Nyoy Volante - Kahit Kailan Chords & Tabs

 

Kahit Kailan Chords & Tabs

Nyoy Volante Chords & Tabs

Version: 2 Type: Tab 0 ratings
1 star 2 stars 3 stars 4 stars 5 stars
comments

Kahit Kailan Tab

Nyoy Volante
kahit kailan
tab by:romeo
email add:romyboygtr
mobil no:09205082626

intro
E-4-------6----0-|----0---------|-0--0-0-0-0---|
B-5-----5---5/7--|---0----------|-2---0-2-0----|
G-4------4-4-----|--2-----------|-2------------|
D-2--------------|--------------|-2------------|
A----------------|-2------------|--------------|
E----------------|0-------------|--------------|
[ Tab from: http://www.guitartabs.cc/tabs/n/nyoy_volante/kahit_kailan_tab_ver_2.html ]
E-4-------6----0-|----0---------|-0--0-0-0-0---|-0--0-0-0----|
B-5-----5---5/7--|---0----------|-2---0-2-0----|-2---0-2-0---|
G-4------4-4-----|--2-----------|-2------------|-2-----------|
D-2--------------|--------------|-2------------|-2-----------|
A----------------|-2------------|-0------------|-0-----------|
E----------------|0-------------|--------------|-------------|

E-0--------------|
B-2--------------|
G-2--------------|
D-2--------------|
A-0--------------|
E----------------|


pre,intro lang 2 kung kailangan n'yo ng whole tab email n'yo lang ako.  
sana magustuhan n'yo tnx.
Comments