Nugent Ted - Stranglehold Chords & Tabs

 

Stranglehold Chords & Tabs

Nugent Ted Chords & Tabs

Version: 2 Type: Tab 3 ratings
1 star 2 stars 3 stars 4 stars 5 stars
comments

Stranglehold Tab

                              Ted Nugent - Stranglehold                                   
                                      by digiti
                                                   


LEAD GUITAR:
          
E||------------------|------------------|------------------|------------------|
B||------------------|------------------|------------------|------------------|
G||------------------|------------------|------------------|------------------|
D||------------------|------------------|------------------|------------------|
A||------------------|------------------|------------------|------------------|
E||------------------|------------------|------------------|------------------|


                                                                            
------------------|------------------|------------------|------------------|
------------------|------------------|------------------|------------------|
------------------|------------------|------------------|------------------|
------------------|------------------|------------------|------------------|
------------------|------------------|------------------|------------------|
------------------|------------------|------------------|------------------|


                                                                            
------------------|------------------|------------------|------------------|
------------------|------------------|------------------|------------------|
------------------|------------------|------------------|------------------|
------------------|------------------|------------------|------------------|
------------------|------------------|------------------|------------------|
------------------|------------------|------------------|------------------|


                                                                               
---------------------|------------------|------------------|------------------|
---------------------|------------------|------------------|------------------|
-------------------x-|------------------|------------------|------------------|
---------7/9~------9/|------------------|------------------|------------------|
---------------------|------------------|------------------|------------------|
---------------------|------------------|------------------|------------------|


                                                                            
------------------|------------------|------------------|------------------|
------------------|------------------|------------------|------------------|
------------------|------------------|------------------|------------------|
------------------|------------------|------------------|------------------|
------------------|------------------|------------------|------------------|
------------------|------------------|------------------|------------------|


                                                                                
---------------------|-------------------------|-------------------------------|
---------------------|--5-------5-5--5-5~---7--|--8-----8---8-8--------10--10--|
-------------------x-|--7b---7b---7b-7b-----9b-|--10~---10b---10b------12b-12b-|
---------7/9~------9/|-------------------------|-------------------------------|
---------------------|-------------------------|-------------------------------|
---------------------|-------------------------|-------------------------------|


                                           
------------------------------------5h0---|
--10--8-----8---10--10--10--5-5-----------|
--12b-10b10b10b-12b-12b-12b-7b7b7r7b----7-|
------------------------------------------|
------------------------------------------|
------------------------------------------|


                                                                         
------5h0-----------7-----7--------------------------|------------------|
--5-------5-5---------8-8---10-10-10-------20-20-20/-|------------------|
----7b--------5-7/9---------------------17-19b---19/-|------------------|
-------------------------------------19--------------|------------------|
-----------------------------------------------------|------------------|
-----------------------------------------------------|------------------|


                                                                            
------------------|------------------|------------------|------------------|
------------------|------------------|------------------|------------------|
------------------|------------------|------------------|------------------|
------------------|------------------|------------------|------------------|
------------------|------------------|------------------|------------------|
------------------|------------------|------------------|------------------|


                                                                               
------------------|------------------|---------------------|------------------|
------------------|------------------|---------------------|------------------|
------------------|------------------|-------------------x-|------------------|
------------------|------------------|---------7/9~------9/|------------------|
------------------|------------------|---------------------|------------------|
------------------|------------------|---------------------|------------------|


                                                         
------------------|------------------|------------------|
------------------|------------------|------------------|
------------------|------------------|------------------|
------------------|------------------|------------------|
------------------|------------------|------------------|
------------------|------------------|------------------|


                                                          
------5-5---------------|--------------------------------|
----8b----8~-------8b---|--8r-------5-8------------8-8-8-|
------------------------|-------5-5-----5----5~7/9-------|
------------------------|--------------------------------|
------------------------|--------------------------------|
------------------------|--------------------------------|


                                                  
----------12------------------------15-----------|
-------10----10~--10-------13-13-13----13~-13-15b|
--9/11---------------12/14-----------------------|
-------------------------------------------------|
-------------------------------------------------|
-------------------------------------------------|


                                                                               
------15------15----------15----------|--17----------------|------------------|
----------15b-----15b---------15r-13--|--------------------|------------------|
--------------------------------------|--------------------|------------------|
--------------------------------------|--------------------|------------------|
--------------------------------------|--------------------|------------------|
--------------------------------------|--------------------|------------------|


                                                             
------------------|--------------------|--17/---------------|
------------------|-----------------17-|--17/---------------|
------------------|--------------------|--------------------|
------------------|--------------------|--------------------|
------------------|--------------------|--------------------|
------------------|--------------------|--------------------|


                                                          
-------------------|------------------|------------------|
-------------------|------------------|------------------|
-------------------|------------------|------------------|
--7----------------|------------------|------------------|
-------------------|------------------|------------------|
-------------------|------------------|------------------|


                                                                     
----------------------|--17-17/--------------|----------------------|
--20-20/--------------|--22-22/--------------|--20-20/--------------|
--21-21/--------------|----------------------|--21-21/--------------|
----------------------|----------------------|----------------------|
----------------------|----------------------|----------------------|
----------------------|----------------------|----------------------|


                                                                         
--17-17/---------------------------|------------------------------------|
--22-22/-------18h17-------18-17---|--20------20------20-----20---------|
---------------------17-16---------|------19b-----19b----19b----19b-----|
-----------------------------------|------------------------------------|
-----------------------------------|------------------------------------|
-----------------------------------|------------------------------------|


                                                                             
--------------------------------|-------------------------------------------|
------20------20------20-20-----|--20-----------------20--------------------|
----------19b-----19b----19-----|------19r---17---19b------19r16~--17-17-17-|
--------------------------------|-------------------------------------------|
--------------------------------|-------------------------------------------|
--------------------------------|-------------------------------------------|


                                                                            
------------------------------------------------|----------------------12--|
--20-18-17--------------------------------------|------------------12------|
-----------19-17-16-17-16-14-16--14-14~-12-14b--|------14b---14b-----------|
------------------------------------------------|--------------------------|
------------------------------------------------|--------------------------|
------------------------------------------------|--------------------------|


                                        
---------------------------12-------12-|
------------------------12-------12----|
--14b--14b14b14~---14b--------14b------|
---------------------------------------|
---------------------------------------|
---------------------------------------|


                                                   
--------12-------12-------12-------12-------12-12-|
-----12-------12-------12-------12-------12-------|
--14b------14b------14b------14b------14b---------|
--------------------------------------------------|
--------------------------------------------------|
--------------------------------------------------|


                                       
--12----12-12-12--12-12----12--12--12-|
-----12-12-12-12--12-12----12--12--12-|
-----14b14b14b14b-14b14b---14b-14b-14-|
--------------------------------------|
--------------------------------------|
--------------------------------------|


                                               
----------------------------------------------|
------------------------20-----20-------20----|
--------17-17-17-17-19b----19b----19~------19b|
--17/19---------------------------------------|
----------------------------------------------|
----------------------------------------------|


                                                                              
------------------------------------|----------------------------------------|
---------20b20~-------20b-----20b---|------20b-------------------------------|
--19r-17---------19r-----19r-----19b|--19r----19r--17-19-17--17-19-16--16-17-|
------------------------------------|----------------------------------------|
------------------------------------|----------------------------------------|
------------------------------------|----------------------------------------|


                                              
---------------------------------------------|
---------------------------------------------|
--14--14h16h17-16--14--12--11--9-9-12--11-11-|
---------------------------------------------|
---------------------------------------------|
---------------------------------------------|


                                                                   
----------------------------------------|-------------------------|
----------------------------------------|-------------------10h12-|
--11h12-12-12-12~-----11h12h11h12h11h12h|--10---9~----------------|
----------------------------------------|-------------------------|
----------------------------------------|-------------------------|
----------------------------------------|-------------------------|


                                                                             
-------------------------------------------|----------------------------17--|
--13---13-13-13----13h-12h-13h-12--13--15--|--17----------------------------|
-------------------------------------------|-------14-14~-----------17------|
-------------------------------------------|--------------------19----------|
-------------------------------------------|--------------------------------|
-------------------------------------------|--------------------------------|


                                                                           
--16-17~----------------|------------------|------------------------------|
------------------------|------------------|------------------------------|
------------17/---------|------------------|--19r---17~---19b-------------|
------------------------|------------------|-----------------19~--19b-----|
------------------------|------------------|------------------------------|
------------------------|------------------|------------------------------|


                               
------------------------------|
---20b20r---------------------|
------19r---17--19--16~-------|
------------------------------|
------------------------------|
------------------------------|


                                                  
--17-------15-------13-------12-------10-------8-|
-------------------------------------------------|
-----19/17----17/16----16/14----14/12----12/11---|
-------------------------------------------------|
-------------------------------------------------|
-------------------------------------------------|


                                                          
-------7-----5---------------------|---------------------|
---------------------------------8-|--8/10---------------|
--11/9---9/7---7/5---5-5-5-5-7/9---|---------------------|
-----------------------------------|---------------------|
-----------------------------------|---------------------|
-----------------------------------|---------------------|


                                                     
--17/-------------------|--------------------8------|
----------------5h7-8-7-|--5-8b--8r------------5----|
------------------------|--------------5-7----------|
------------------------|------------------5--------|
------------------------|---------------------------|
------------------------|---------------------------|


                                                                           
-------5-8--7--8--7~------------|--8--7--5-8-----------8--7--8------------|
---5-8--------------------5-5-5-|------------7---5-5-5----------5~--7-7-7-|
--------------------------------|-----------------------------------------|
--------------------------------|-----------------------------------------|
--------------------------------|-----------------------------------------|
--------------------------------|-----------------------------------------|


                                                                              
--8-7-5---------5----------------|-----------------------|-------------------|
--------8-7-5--------------------|-----------------------|-------------------|
--------------7---5----------5-7-|--5---5-5--------------|-------------------|
---------------------7---5-7-----|----------7~-----------|-----------------7/|
-----------------------7---------|-----------------------|-------------------|
---------------------------------|-----------------------|-------------------|


                                                               
--------------------------|-----------------------------------|
--------------------------|-----------------------------------|
--------------------------|-----------------------------------|
--------------------------|-----------------------------------|
--3--2/3--------3-3b------|--3--2/3----3--5b-5r5b5r5b5r-3--5--|
---------5~-3h5-----------|---------5-------------------------|


                                                                           
------------------------------------|---------------------------5---------|
------------------------------------|-------------------------------------|
------------------------------------|-----------------------------5---5-7b|
------------------------------------|--------5-5h7---------5-7b-----7-----|
--3b-----3b--5-5-3-3---3-5-3--5-3---|--3-5-7-------5---5-7----------------|
-----5-5-------------5------------5-|----------------7--------------------|


                                                     
----8---------5--------------|----------------------|
-----------------------------|------7r-7b-----------|
------7r--5-7---5------------|----5-7r-7b-----------|
------------------7~-------5-|--7-------------------|
-----------------------5h7---|----------------------|
-----------------------------|----------------------|


                                                                         
-------------------------------|-------------------8-----------------14-|
--7r-----------5---------------|--------------------------8-10-8-5-8----|
----7r--5----7---5~------------|------5h7h5---5-7b---5/-9---------------|
----------7----------7-5-7h5---|--5-7-------7---------------------------|
-----------------------------7-|----------------------------------------|
-------------------------------|----------------------------------------|


                                                                  
---13-12~------------------14-|---13-12~---12/15-12~-------------|
------------------10-8---8----|---------------------------10-8---|
-----------------------9------|--------------------------------9-|
------------------------------|----------------------------------|
------------------------------|----------------------------------|
------------------------------|----------------------------------|


                                              
----14-13-12--12----------14-13-12-----------|
--8--------------10-8---8------------15b-15b-|
----------------------9----------------------|
---------------------------------------------|
---------------------------------------------|
---------------------------------------------|


                                                
----15------15----------17--17~-17-17-17h15----|
--------15b-----15r-13----------------------17-|
-----------------------------------------------|
-----------------------------------------------|
-----------------------------------------------|
-----------------------------------------------|


                                                             
--15-17-17-17-17~----------------|--17/---------------------|
---------------------------------|--17/---------17b-13b-----|
-------------------------------x-|--------------------------|
-----------------------------x---|--------------------------|
---------------------------x-----|--------------------------|
---------------------------------|--------------------------|


                                                                               
--------5--------------|-----------------------|------------------------------|
--------5--------------|-----------------------|------------------------------|
------x---5~-----------|--------------5--7--7r-|----5-----------------------5b|
----x-----5------------|-----------------------|------5~------5-5-5-5-7---5---|
--x--------------------|-----------------------|------------------------7-----|
-----------------------|-----------------------|------------------------------|


                                                                 
----------------------|--17--17/-------------|------------------|
----------5-5/---1----|----------------------|------------------|
----------5-5/---1----|----------------------|------------------|
--7~------5-5/---1----|----------------------|------------------|
----------------------|----------------------|------------------|
----------------------|----------------------|------------------|


                                                                            
--5----------------5-5-|--5-5-5-5/------------7-|---------7h8h7--------7-7-|
--5--------------5-5-5-|--5-5-5-5/------------7-|--7---------------------7-|
--5----------------5-5-|--5-5-5-5/------------7-|--7---------------------7-|
--5----------------5-5-|--5-5-5-5/--------------|--7---------------------7-|
-----------------------|------------------------|--------------------------|
-----------------------|------------------------|--------------------------|


                                                               
--7/---------------|--5---------------5-5-|--5/---------------|
--7/---------------|--5---------------5-5-|--5/---------------|
--7/---------------|--5---------------5-5-|--5/---------------|
--7/---------------|--5---------------5-5-|--5/---------------|
-------------------|----------------------|-------------------|
-------------------|----------------------|-------------------|


                                                  
--7~--------------7-7-|--7/----------------------|
--7---------------7-7-|--7/----x-----x-----------|
--7---------------7-7-|--7/----x-----x--4-----4--|
--7---------------7-7-|--7/----x-----x-----5-----|
----------------------|--------------------------|
----------------------|--------------------------|


                                                                 
------------------------------|---------------------------------|
------------------------------|---------------------------------|
--2~-----------------4-----4--|--6---2-2~2~------------4-----4--|
------2-2-2----2--2-----5-----|--------------2-2-2--2-----5-----|
------0-0-0----0--0-----------|--------------0-0-0--0-----------|
------------------------------|---------------------------------|


                                                                
-----------------------------|---------------------------------|
-----------------------------|---------------------------------|
--2~----------------4-----4--|--6--6-2-2-2---------------------|
-------2-2-2-----------5-----|---------------2-2-2-------------|
-------0-0-0-----------------|---------------0-0-0----5--5--5--|
-----------------------------|------------------------3--3--3--|


                                                                  
----------------------|-----------8h5-8h5-----|------------------|
-------0--------------|-----------------------|------------------|
---------5b-----------|-----------------------|------------------|
----------------------|-----------------------|------------------|
--5/7-----------------|-----------------------|------------------|
--3/5-----------------|-----------------------|------------------|


                                                              
------------------|------------------|-----------------------|
------------------|------------------|-----------------------|
------------------|------------------|--------------4-----4--|
------------------|------------------|-----------------5-----|
------------------|------------------|-----------------------|
------------------|------------------|-----------------------|


                                                                   
------------------------------|-----------------------------------|
------------------------------|-----------------------------------|
--2~-----------------4-----4--|--6---2-2~2~-----------4-----4h6-4/|
------2-2-2----2--2-----5-----|--------------2-2---------5--------|
------0-0-0----0--0-----------|--------------0-0-0----------------|
------------------------------|-----------------------------------|


                                                                 
------------------------------|---------------------------------|
------------------------------|---------------------------------|
--2------------------4-----4--|--6--6-2-2-2---------------------|
---------------2--2-----5-----|---------------2-2-2-------------|
------0-0-0----0--0-----------|---------------0-0-0----5--5--5--|
------------------------------|------------------------3--3--3--|


                                                                
------------------------|------------------|-------------------|
------------------------|------------------|-------------------|
------------------------|------------------|-------------------|
------------------------|------------------|--2----------------|
--5/-7----12------------|------------------|--0----------------|
--3/-5------------------|------------------|-------------------|


                                                                 
-------------------|--------------------|-----------8h5-8h5-----|
-------------------|--------------------|-----------------------|
-------------------|--------------------|-----------------------|
------5------------|--------------------|-----------------------|
-------------------|--x-----------------|-----------------------|
-------------------|--15/---------------|-----------------------|


                                                                         
-------------------------------|------------------|---------------------|
-----------20b----20b17--------|------------------|---------------5--7--|
--------------19r-------19-19~-|------------------|---------------5--7--|
-------------------------------|------------------|--7------------5--7--|
-------------------------------|------------------|--0------------------|
-------------------------------|------------------|---------------------|


                                                                            
---------------------|---------------------|---------------------|----|----|
---------------------|---------------5--7--|---------------------|----|----|
---------------------|---------------5--7--|-----------18--------|----|----|
--7------------------|---------------5--7--|--7------------------|----|----|
--0------------5/-7--|--7------------------|--0--------16~-------|----|----|
---------------3/-5--|--5------------------|---------------------|----|----|

[ Tab from: http://www.guitartabs.cc/tabs/n/nugent_ted/stranglehold_tab_ver_2.html ]
                                                                           
----|----|----|----|----|----|--------------------------------------------|
----|----|----|----|----|----|----------------------------------5-----5-7-|
----|----|----|----|----|----|----------------------------------5-----5-7-|
----|----|----|----|----|----|--5-7-7-7-5-7-7-7-5-7-7-7-5-7-7-7-5-----5-7-|
----|----|----|----|----|----|--0-0-0-0-0-0-0-0-0-0-0-0-0-0-0-0---0-0-----|
----|----|----|----|----|----|--------------------------------------------|


                                             
--------------------------------------------|
--------------------------------------------|
--7h5---------------------------------------|
--7h5-7-7-5-7-7-7-5-7-7-7-5-7-0-5-5-5-5-5-7/|
------0-0-0-0-0-0-0-0-0-0-0-0-0-------------|
--------------------------------------------|


                                                                               
------------------------------------------|-----------------------------------|
--------------------------------5-----5-7-|-----------------------------------|
--------------------------------5-----5-7-|--7h5-----------0------------------|
--5h7-7-5-7-7-7-5-7-7-7-5-7-7-7-5-----5-7-|--7-5-7-7-5-7-7-0---5--------------|
--0---0-0-0-0-0-0-0-0-0-0-0-0-0---0-0-----|------0-0-0-0-0-0---5------3h1---1-|
------------------------------------------|------------------0-3----------3---|


                                                          
--------------------------------------3----------3-------|
------------------------------------3-3-6b---6-3-3-6h3---|
------------------------5b5h3---3-5b------5b-----------5-|
--------------3-3-3-3-3-------5--------------------------|
--3h1-3h1------------------------------------------------|
----------3h1--------------------------------------------|


                                                    
----3-------------------5/12---|------------------||
--3-3-6h3-5r-6b-6b-6~----------|------------------||
-------------------------------|------------------||
-------------------------------|------------------||
-------------------------------|------------------||
-------------------------------|------------------||





















RHYTHM GUITAR:
           
E||------------------|------------------------------------|
B||------------------|------------------------------------|
G||------------------|----------9-----9---9-----5---5-7-7-|
D||------------------|--5/7-----7-----7---7-----5---5-7-7-|
A||------------------|--0---0-0---0-0---0---0-0---0-------|
E||------------------|------------------------------------|


                                                                        
----------------------------------|------------------------------------|
----------------------------------|------------------------------------|
--7h5-------------9---9-----------|----------9-----9---9-----5---5-7-7-|
--7h5-------7-----7---7---0-------|--5/7-----7-----7---7-----5---5-7-7-|
------0-0-0-0-0-0---0---0-0-5--7--|--0---0-0---0-0---0---0-0---0-------|
----------------------------3--5--|------------------------------------|


                                                                          
------------------------------------|------------------------------------|
----------------------------12--14/-|------------------------------------|
--7h5-------9-----9---9-----12--14/-|----------9-----9---9-----5---5-7-7-|
--7h5-------7-----7---7-----12--14/-|--5/7-----7-----7---7-----5---5-7-7-|
------0-0-0---0-0---0---0-----------|--0---0-0---0-0---0---0-0---0-------|
--------------------------0---------|------------------------------------|


                                                                            
----------------------------------|----------------------------------------|
----------------------------------|----------------------------------------|
--7h5-------------9---9-----------|------------------------------5---5-----|
--7h5-------7-----7---7---0-------|--5h7-7-5-7-------7-----------5-7-5-7-7-|
------0-0-0-0-0-0---0---0-0-5--7--|--0---0-0-0-0-0-0-0-0-0-0-0-0---7---7-7-|
----------------------------3--5--|----------------------------------------|


                                                                          
--------------------------------------|----------------------------------|
--------------------------------------|----------------------------------|
--7h5---------------------------------|-------0-----------------5--7-----|
--7h5-7-7-5-5-7-7-7-5-7-7-5-7-0-------|--5h7----7-----7---5h7---5--7-7h5-|
------0-0-0-0-0-0-0-0-0-0-0-0-0-5--7--|--0------0-0-0-0-0-0---0----------|
--------------------------------3--5--|----------------------------------|


                                                                  
-------------------------------|---------------------------------|
-------------------------------|---------------------------------|
-------------------------------|------------------------5--7-----|
--7h5----5-7--5-7--5-7-0-------|--5h7----7--5-7---5-7---5--7-7-7-|
------0----0--0-0--0---0-5--7--|--0----0-0--5---0-----0----------|
-------------------------3--5--|---------------------------------|


                                                                   
-------------------------------|----------------------------------|
-------------------------------|----------------------------------|
-------------------------------|-------------------------5--7-----|
--7h5----5-7--5-7--5-7-0-------|--5h7--5-7-----7---5h7---5--7-7h5-|
------0----0--0-0--0---0-5--7--|--0------0-0-0-0-0-0---0----------|
-------------------------3--5--|----------------------------------|


                                                                  
-------------------------------|---------------------------------|
-------------------------------|---------------------------------|
-------------------------------|------------------------5--7-----|
--7h5----5-7--5-7--5-7-0-------|--5h7----7--5-7---5-7---5--7-7-7-|
------0----0--0-0--0---0-5--7--|--0----0-0--0---0-----0----------|
-------------------------3--5--|---------------------------------|


                                                                   
-------------------------------|----------------------------------|
-------------------------------|----------------------------------|
-------------------------------|-------------------------5--7-----|
--7h5----5-7--5-7--5-7-0-------|--5h7--5-7-----7---5h7---5--7-7h5-|
------0----0--0-0--0---0-5--7--|--0------0-0-0-0-0-0---0----------|
-------------------------3--5--|----------------------------------|


                                                                  
-------------------------------|---------------------------------|
-------------------------------|---------------------------------|
-------------------------------|------------------------5--7-----|
--7h5----5-7--5-7--5-7-0-------|--5h7----7--5-7---5-7---5--7-7-7-|
------0----0--0-0--0---0-5--7--|--0----0-0--0---0-----0----------|
-------------------------3--5--|---------------------------------|


                                                                   
-------------------------------|----------------------------------|
-------------------------------|----------------------------------|
-------------------------------|-------0-----------------5--7-----|
--7h5----5-7--5-7--5-7-0-------|--5h7----7-----7---5h7---5--7-7h5-|
------0----0--0-0--0---0-5--7--|--0------0-0-0-0-0-0---0----------|
-------------------------3--5--|----------------------------------|


                                                                  
-------------------------------|---------------------------------|
-------------------------------|---------------------------------|
-------------------------------|------------------------5--7-----|
--7h5----5-7--5-7--5-7-0-------|--5h7----7--5-7---5-7---5--7-7-7-|
------0----0--0-0--0---0-5--7--|--0----0-0--5---0-----0----------|
-------------------------3--5--|---------------------------------|


                                                                   
-------------------------------|----------------------------------|
-------------------------------|----------------------------------|
-------------------------------|-------------------------5--7-----|
--7h5----5-7--5-7--5-7-0-------|--5h7--5-7-----7---5h7---5--7-7h5-|
------0----0--0-0--0---0-5--7--|--0------0-0-0-0-0-0---0----------|
-------------------------3--5--|----------------------------------|


                                                                  
-------------------------------|---------------------------------|
-------------------------------|---------------------------------|
-------------------------------|------------------------5--7-----|
--7h5----5-7--5-7--5-7-0-------|--5h7----7--5-7---5-7---5--7-7-7-|
------0----0--0-0--0---0-5--7--|--0----0-0--0---0-----0----------|
-------------------------3--5--|---------------------------------|


                                                                   
-------------------------------|----------------------------------|
-------------------------------|----------------------------------|
-------------------------------|-------------------------5--7-----|
--7h5----5-7--5-7--5-7-0-------|--5h7--5-7-----7---5h7---5--7-7h5-|
------0----0--0-0--0---0-5--7--|--0------0-0-0-0-0-0---0----------|
-------------------------3--5--|----------------------------------|


                                                                  
-------------------------------|---------------------------------|
-------------------------------|---------------------------------|
-------------------------------|------------------------5--7-----|
--7h5----5-7--5-7--5-7-0-------|--5h7----7--5-7---5-7---5--7-7-7-|
------0----0--0-0--0---0-5--7--|--0----0-0--0---0-----0----------|
-------------------------3--5--|---------------------------------|


                                                                            
-------------------------------|----------------------|--2-----------------|
-------------------------------|----------------------|--2-----------------|
-------------------------------|----------------2--4--|--3------------3/---|
--7h5----5-7--5-7--5-7-0-------|----------------2--4--|--4------------4----|
------0----0--0-0--0---0-5--7--|--4--4----------0--2--|--4-----------------|
-------------------------3--5--|--2--2----------------|--2-----------------|


                                                                               
--0------------------|---------------------|----------------------------------|
--2------------2--2--|---------------------|----------------------------------|
--3------------2--2--|--3------------------|-------0-----------------5--7-----|
--4------------2--2--|--4--------------2-2-|--5h7----7-----7---5h7---5--7-7h5-|
--4------------0--0--|--4--------------0-0-|--0------0-0-0-0-0-0---0----------|
--2------------------|--2------------------|----------------------------------|


                                                                  
-------------------------------|---------------------------------|
-------------------------------|---------------------------------|
-------------------------------|------------------------5--7-----|
--7h5----5-7--5-7--5-7-0-------|--5h7----7--5-7---5-7---5--7-7-7-|
------0----0--0-0--0---0-5--7--|--0----0-0--5---0-----0----------|
-------------------------3--5--|---------------------------------|


                                                                      
-------------------------------|------------------|------------------|
-------------------------------|------------------|------------------|
-------------------------------|------------------|------------------|
--7h5----5-7--5-7--5-7-0-------|------------------|------------------|
------0----0--0-0--0---0-5--7--|------------------|------------------|
-------------------------3--5--|------------------|------------------|


                                                                            
------------------|------------------|------------------|------------------|
------------------|------------------|------------------|------------------|
------------------|------------------|------------------|------------------|
------------------|------------------|------------------|------------------|
------------------|------------------|------------------|------------------|
------------------|------------------|------------------|------------------|


                                                                            
------------------|------------------|------------------|------------------|
------------------|------------------|------------------|------------------|
------------------|------------------|------------------|------------------|
------------------|------------------|------------------|------------------|
------------------|------------------|------------------|------------------|
------------------|------------------|------------------|------------------|


                                                                            
------------------|------------------|------------------|------------------|
------------------|------------------|------------------|------------------|
------------------|------------------|------------------|------------------|
------------------|------------------|------------------|------------------|
------------------|------------------|------------------|------------------|
------------------|------------------|------------------|------------------|


                                                                            
------------------|------------------|------------------|------------------|
------------------|------------------|------------------|------------------|
------------------|------------------|------------------|------------------|
------------------|------------------|------------------|------------------|
------------------|------------------|------------------|------------------|
------------------|------------------|------------------|------------------|


                                                                            
------------------|------------------|------------------|------------------|
------------------|------------------|------------------|------------------|
------------------|------------------|------------------|------------------|
------------------|------------------|------------------|------------------|
------------------|------------------|------------------|------------------|
------------------|------------------|------------------|------------------|


                                                                            
------------------|------------------|------------------|------------------|
------------------|------------------|------------------|------------------|
------------------|------------------|------------------|------------------|
------------------|------------------|------------------|------------------|
------------------|------------------|------------------|------------------|
------------------|------------------|------------------|------------------|


                                                                            
------------------|------------------|------------------|------------------|
------------------|------------------|------------------|------------------|
------------------|------------------|------------------|------------------|
------------------|------------------|------------------|------------------|
------------------|------------------|------------------|------------------|
------------------|------------------|------------------|------------------|


                                                                            
------------------|------------------|------------------|------------------|
------------------|------------------|------------------|------------------|
------------------|------------------|------------------|------------------|
------------------|------------------|------------------|------------------|
------------------|------------------|------------------|------------------|
------------------|------------------|------------------|------------------|


                                                                            
------------------|------------------|------------------|------------------|
------------------|------------------|------------------|------------------|
------------------|------------------|------------------|------------------|
------------------|------------------|------------------|------------------|
------------------|------------------|------------------|------------------|
------------------|------------------|------------------|------------------|


                                                                            
------------------|------------------|------------------|------------------|
------------------|------------------|------------------|------------------|
------------------|------------------|------------------|------------------|
------------------|------------------|------------------|------------------|
------------------|------------------|------------------|------------------|
------------------|------------------|------------------|------------------|


                                                                            
------------------|------------------|------------------|------------------|
------------------|------------------|------------------|------------------|
------------------|------------------|------------------|------------------|
------------------|------------------|------------------|------------------|
------------------|------------------|------------------|------------------|
------------------|------------------|------------------|------------------|


                                                                            
------------------|------------------|------------------|------------------|
------------------|------------------|------------------|------------------|
------------------|------------------|------------------|------------------|
------------------|------------------|------------------|------------------|
------------------|------------------|------------------|------------------|
------------------|------------------|------------------|------------------|


                                                                            
------------------|------------------|------------------|------------------|
------------------|------------------|------------------|------------------|
------------------|------------------|------------------|------------------|
------------------|------------------|------------------|------------------|
------------------|------------------|------------------|------------------|
------------------|------------------|------------------|------------------|


                                                                            
------------------|------------------|------------------|------------------|
------------------|------------------|------------------|------------------|
------------------|------------------|------------------|------------------|
------------------|------------------|------------------|------------------|
------------------|------------------|------------------|------------------|
------------------|------------------|------------------|------------------|


                                                                            
------------------|------------------|------------------|------------------|
------------------|------------------|------------------|------------------|
------------------|------------------|------------------|------------------|
------------------|------------------|------------------|------------------|
------------------|------------------|------------------|------------------|
------------------|------------------|------------------|------------------|


                                                                            
------------------|------------------|------------------|------------------|
------------------|------------------|------------------|------------------|
------------------|------------------|------------------|------------------|
------------------|------------------|------------------|------------------|
------------------|------------------|------------------|------------------|
------------------|------------------|------------------|------------------|


                                                         
------------------|------------------|------------------|
------------------|------------------|------------------|
------------------|------------------|------------------|
------------------|------------------|------------------|
------------------|------------------|------------------|
------------------|------------------|------------------|


                                                       
-------------------------|----------------------------|
--------x--x-------------|----------------------------|
--------x--x----7-----7--|--6~---------------7-----7--|
--------x--x-------9-----|----------------------9-----|
-------------------------|------0-0-0-----------------|
-------------------------|----------------------------|


                                                               
---------------------------------|----------------------------|
---------------------------------|----------------------------|
--9--9/6-6-6~-----------7-----7--|--6----------------7-----7--|
---------------------------9-----|----------------------9-----|
---------------0-0-0-------------|------0-0-0-----------------|
---------------------------------|----------------------------|


                                                               
---------------------------------|----|----|------------------|
---------------------------------|----|----|------------------|
--9--9/6-6-6~--------------------|----|----|------------------|
---------------------------------|----|----|------------------|
---------------0-0-0----5--5--5--|----|----|------------------|
------------------------3--3--3--|----|----|------------------|


                                                              
------------------|------------------|-----------------------|
------------------|------------------|-----------------------|
------------------|------------------|--------------7-----7--|
------------------|------------------|-----------------9-----|
------------------|------------------|-----------------------|
------------------|------------------|-----------------------|


                                                              
--------------------------|----------------------------------|
--------------------------|----------------------------------|
--6~-------------7-----7--|--9--9/6-6-6~---------7-----7h9-7/|
--------------------9-----|-------------------------9--------|
------0-0-----------------|---------------0-0----------------|
--------------------------|----------------------------------|


                                                                    
----------------------------|---------------------------------|----|
----------------------------|---------------------------------|----|
--2----------------7-----7--|--9--9/6-6-6~--------------------|----|
----------------------9-----|---------------------------------|----|
------0-0-0-----------------|---------------0-0-0----5--5--5--|----|
----------------------------|------------------------3--3--3--|----|


                                                                            
------------------|------------------|------------------|------------------|
------------------|------------------|------------------|------------------|
------------------|------------------|------------------|------------------|
------------------|------------------|------------------|------------------|
------------------|------------------|------------------|------------------|
------------------|------------------|------------------|------------------|


                                                                            
------------------|------------------|------------------|------------------|
------------------|------------------|------------------|------------------|
------------------|------------------|------------------|------------------|
------------------|------------------|------------------|------------------|
------------------|------------------|------------------|------------------|
------------------|------------------|------------------|------------------|


                                                         
------------------|------------------|------------------|
------------------|------------------|------------------|
------------------|------------------|------------------|
------------------|------------------|------------------|
------------------|------------------|------------------|
------------------|------------------|------------------|


                                                                   
----------------------------------|-------------------------------|
----------------------------------|-------------------------------|
-------------------------5--7-----|-------------------------------|
--5h7--5-7-----7---5h7---5--7-7h5-|--7h5----5-7--5-7--5-7-0-------|
--0------0-0-0-0-0-0---0----------|------0----0--0-0--0---0-5--7--|
----------------------------------|-------------------------3--5--|


                                                                  
---------------------------------|-------------------------------|
---------------------------------|-------------------------------|
------------------------5--7-----|-------------------------------|
--5h7----7--5-7---5-7---5--7-7-7-|--7h5----5-7--5-7--5-7-0-------|
--0----0-0--0---0-----0----------|------0----0--0-0--0---0-5--7--|
---------------------------------|-------------------------3--5--|


                                                                   
----------------------------------|-------------------------------|
----------------------------------|-------------------------------|
-------------------------5--7-----|-------------------------------|
--5h7--5-7-----7---5h7---5--7-7h5-|--7h5----5-7--5-7--5-7-0-------|
--0------0-0-0-0-0-0---0----------|------0----0--0-0--0---0-5--7--|
----------------------------------|-------------------------3--5--|


                                                                            
---------------------------------|-------------------------------|----|----|
---------------------------------|-------------------------------|----|----|
------------------------5--7-----|-------------------------------|----|----|
--5h7----7--5-7---5-7---5--7-7-7-|--7h5----5-7--5-7--5-7-0-------|----|----|
--0----0-0--0---0-----0----------|------0----0--0-0--0---0-5--7--|----|----|
---------------------------------|-------------------------3--5--|----|----|


                                                                          
----|-------------------|------------------|---10-7--------------|------||
----|----------0--------|------------------|---------------------|------||
----|----------0--------|------------------|---------------------|------||
----|----------0--------|------------------|---------------------|------||
----|-------------------|------------------|---------------------|------||
----|----------3--------|------------------|---------------------|------||
Comments