Nudeswirl - Buffalo Chords & Tabs

 

Buffalo Chords & Tabs

Nudeswirl Chords & Tabs

Version: 1 Type: Bass Tab 0 ratings
1 star 2 stars 3 stars 4 stars 5 stars
comments

Buffalo Bass Tab

Artist: Nudeswirl
Album: Nudeswirl
Song: Buffalo
Track#: 6
Bassist: Chris Wargo

Alright so this tab took a while and I don't expect to make a guitar tab
because of the solo. This song is kinda easy once you learn when to do
what. I also thinks it's a 7/4 beat on drums.

Intro (guitar comes in last 4 times)
G|----------------------7-7-|
D|----------------------5-5-| x8 
A|--7-5--7-5--7-5--7-5------|
E|-0----0----0----0---------|

Verse 1
G|--------------------------|
D|--------------------------| 
A|-7------------------------|
E|-0------------------------|

G|----------------------7-7-|
D|----------------------5-5-| 
A|--7-5--7-5--7-5--7-5------|
E|-0----0----0----0---------|

G|--------------------------|
D|--------------------------| 
A|-7------------------------|
E|--------------------------|

G|----------------------7-7-|
D|----------------------5-5-| 
A|--7-5--7-5--7-5--7-5------|
E|-0----0----0----0---------|

G|--------------------------|
D|--------------------------| 
A|-7------------------------|
E|-0------------------------|

G|----------------------7-7-|
D|----------------------5-5-| 
A|--7-5--7-5--7-5--7-5------|
E|-0----0----0----0---------|

G|--------------------------|
D|--------------------------|
A|-7------------------------|
E|--------------------------|

G|----------------------7-7-|
D|----------------------5-5-| 
A|--7-5--7-5--7-5--7-5------|
E|-0----0----0----0---------|

Transition to 2nd Verse
G|--------------------------|
D|--------------------------|
A|--------------------5-5-5-|
E|-3-3--5-5--7-7--8-8-------|

Verse 2
G|----------------------7-7-|
D|----------------------5-5-| 
A|--7-5--7-5--7-5--7-5------|
E|-0----0----0----0---------|

G|----------------------7-7-|
D|----------------------5-5-| 
A|--7-5--7-5--7-5--7-5------|
E|-0----0----0----0---------|

G|--------------------------|
D|--------------------------| 
A|-7------------------------|
E|-0------------------------|

G|----------------------7-7-|
D|----------------------5-5-| 
A|--7-5--7-5--7-5--7-5------|
E|-0----0----0----0---------|

G|--------------------------|
D|--------------------------|
A|-5------------------------|
E|--------------------------|

G|----------------------7-7-|
D|----------------------5-5-| 
A|--7-5--7-5--7-5--7-5------|
E|-0----0----0----0---------|

Chorus 1
G|------------------------------|
D|------------------------------|
A|------------------------------|
E|-8-8-8-8-5-5-5-5--10-10-10-10-|

G|--------------------------------|
D|--------------------------------|
A|----7---------------7-----------|
E|-0-0--0-0-7-0-6--0-0--0-0-6-0-8-|

G|------------------------------|
D|------------------------------|
A|------------------------------|
E|-8-8-8-8-5-5-5-5--10-10-10-10-|

Verse 3
G|----------------------7-7-|
D|----------------------5-5-| 
A|--7-5--7-5--7-5--7-5------|
E|-0----0----0----0---------|

G|----------------------7-7-|
D|----------------------5-5-| 
A|--7-5--7-5--7-5--7-5------|
E|-0----0----0----0---------|

G|--------------------------|
D|--------------------------| 
A|-7------------------------|
E|-0------------------------|

G|----------------------7-7-|
D|----------------------5-5-| 
A|--7-5--7-5--7-5--7-5------|
E|-0----0----0----0---------|

G|--------------------------|
D|--------------------------| 
A|-5------------------------|
E|--------------------------|

G|----------------------7-7-|
D|----------------------5-5-| 
A|--7-5--7-5--7-5--7-5------|
E|-0----0----0----0---------|

G|--------------------------|
D|--------------------------| 
A|-7------------------------|
E|-0------------------------|
[ Tab from: http://www.guitartabs.cc/tabs/n/nudeswirl/buffalo_btab.html ]
G|----------------------7-7-|
D|----------------------5-5-| 
A|--7-5--7-5--7-5--7-5------|
E|-0----0----0----0---------|

G|--------------------------|
D|--------------------------|
A|-5------------------------|
E|--------------------------|

G|----------------------7-7-|
D|----------------------5-5-| 
A|--7-5--7-5--7-5--7-5------|
E|-0----0----0----0---------|

Chorus 2
G|------------------------------|
D|------------------------------|
A|------------------------------|
E|-8-8-8-8-5-5-5-5--10-10-10-10-|

G|--------------------------------|
D|--------------------------------|
A|----7---------------7-----------|
E|-0-0--0-0-7-0-6--0-0--0-0-6-0-8-|

G|------------------------------|
D|------------------------------|
A|------------------------------|
E|-8-8-8-8-5-5-5-5--10-10-10-10-|

During guitar solo
G|-----------------------------------|
D|-----------------------------------| x4
A|-------7-------7-------7-----------|
E|-6-6-6---6-6-6---6-6-6---6-6-6-3-0-|

Bridge
G|------------------------------|
D|------------------------------|
A|------------------------------|
E|-8-8-8-8-5-5-5-5--10-10-10-10-|

G|--------------------------------|
D|--------------------------------|
A|----7---------------7-----------|
E|-0-0--0-0-7-0-6--0-0--0-0-6-0-8-|

G|------------------------------|
D|------------------------------|
A|------------------------------|
E|-8-8-8-8-5-5-5-5--10-10-10-10-|

Verse 4
G|--------------------------|
D|--------------------------| 
A|-7------------------------|
E|-0------------------------|

G|----------------------7-7-|
D|----------------------5-5-| 
A|--7-5--7-5--7-5--7-5------|
E|-0----0----0----0---------|

G|--------------------------|
D|--------------------------| 
A|-5------------------------|
E|--------------------------|

G|----------------------7-7-|
D|----------------------5-5-| 
A|--7-5--7-5--7-5--7-5------|
E|-0----0----0----0---------|

G|--------------------------|
D|--------------------------| 
A|-7------------------------|
E|-0------------------------|

G|----------------------7-7-|
D|----------------------5-5-| 
A|--7-5--7-5--7-5--7-5------|
E|-0----0----0----0---------|

G|--------------------------|
D|--------------------------|
A|-5------------------------|
E|--------------------------|

G|----------------------7-7-|
D|----------------------5-5-| 
A|--7-5--7-5--7-5--7-5------|
E|-0----0----0----0---------|

Chorus 3
G|------------------------------|
D|------------------------------|
A|------------------------------|
E|-8-8-8-8-5-5-5-5--10-10-10-10-|

G|--------------------------------|
D|--------------------------------|
A|----7---------------7-----------|
E|-0-0--0-0-7-0-6--0-0--0-0-6-0-8-|

G|------------------------------|
D|------------------------------|
A|------------------------------|
E|-8-8-8-8-5-5-5-5--10-10-10-10-|

G|--------------------------------|
D|--------------------------------|
A|----7---------------7-----------|
E|-0-0--0-0-7-0-6--0-0--0-0-6-0-8-|

Bridge 2
G|------------------------------|
D|------------------------------|
A|------------------------------|
E|-8-8-8-8-5-5-5-5--10-10-10-10-|

G|--------------------------------|
D|--------------------------------|
A|----7---------------7-----------|
E|-0-0--0-0-7-0-6--0-0--0-0-6-0-8-|

G|------------------------------|
D|------------------------------|
A|------------------------------|
E|-8-8-8-8-5-5-5-5--10-10-10-10-|

Outro
G|--------------------------------|
D|--------------------------------|
A|----7---------------7-----------|
E|-0-0--0-0-7-0-6--0-0--0-0-7-0-6-|

G|--------------------------------|
D|--------------------------------|
A|----7---------------7-----------|
E|-0-0--0-0-7-0-6--0-0--0-0-7-0-6-|
Comments