Nuclear Triangle - New Guitar Chords & Tabs

 

New Guitar Chords & Tabs

Nuclear Triangle Chords & Tabs

Version: 1 Type: Tab 0 ratings
1 star 2 stars 3 stars 4 stars 5 stars
comments

New Guitar Tab

tabbed by: JoetheFat
Artist: Nuclear Triangle
Song: New Guitar
( )=how many times to strum chord
This song is tuned in drop D.
Chorus
-------------------------------------------------------------------------------------
-------------------------------------------------------------------------------------
-------------------------------------------------------------------------------------
---0-(3)-----4-(6)---5--(6)---7--(6)-----------------------------------------------------------------
---0-(3)-----4-(6)---5--(6)---7--(6)-----------------------------------------------------------------
---0-(3)-----4-(6)---5--(6)---7--(6)-----------------------------------------------------------------
Repeat 3 times
[ Tab from: http://www.guitartabs.cc/tabs/n/nuclear_triangle/new_guitar_tab.html ]
Solo
-------------------------------------------------------------------------------------
-------------------------------------------------------------------------------------
-------------------------------------------------------------------------------------
---0--(4)-----4--(4)-----5--(4)-----7--(4)-----------------------------------------------------------
-------------------------------------------------------------------------------------
-------------------------------------------------------------------------------------
Repeat 2 times and then do this:
-------------------------------------------------------------------------------------
-------------------------------------------------------------------------------------
-------------------------------------------------------------------------------------
----0--(4)----4--(4)----5--(4)----7----5----4----0---------------------------------------------------
-------------------------------------------------------------------------------------
-------------------------------------------------------------------------------------

-------------------------------------------------------------------------------------
-------------------------------------------------------------------------------------
-------------------------------------------------------------------------------------
-------------------------------------------------------------------------------------
---1--(2)---3--(2)----5--(2)----3--(2)----1--(2)---------------------------------------------------------
-------------------------------------------------------------------------------------
Repeat 2 times then go back to the chorus

Verse
-------------------------------------------------------------------------------------
-------------------------------------------------------------------------------------
-------------------------------------------------------------------------------------
-------------------------------------7--------------------7----------------------------
--------------------------------7---------7---------7---------7--------------------------
----0--(3)----5--(3)----7-------------------7--------------------7------------------------------
Comments