Nu Pagadi - Sweetest Poison Chords & Tabs

 

Sweetest Poison Chords & Tabs

Nu Pagadi Chords & Tabs

Version: 2 Type: Tab 0 ratings
1 star 2 stars 3 stars 4 stars 5 stars
comments

Sweetest Poison Tab

   
Sweetest Poisen by Nu Pagadi


Intro:

Guitar 1 o.Piano 
Riff 1
  e|----------------|----------------|----------------|----------------|
  B|-10-12---10-12--|-10-12---10-----|-10-12---10-12--|-10-12---10-----|
  G|9-------9-------|9-------9---12--|9-------9-------|9-------9---12--|
  D|----------------|----------------|----------------|----------------|
  A|----------------|----------------|----------------|----------------|
  E|----------------|----------------|----------------|----------------|
    

Vers.:
    E5               E5                  E5            E5        D  A
    xx  xx  xx  xx   xx  xx  xx  xx   x xxxx  xx  xx   x xxxx  x x  x   
  e|----------------|----------------|----------------|----------------|
  B|----------------|----------------|----------------|----------------|
  G|----------------|----------------|----------------|----------------|
  D|----------------|----------------|----------------|-----------7----|
  A|22--22--22--22--|22--22--22--22--|2----2--22--22--|2----2--22-5-7--|
  E|00--00--00--00--|00--00--00--00--|0322-0--00--00--|0322-0--00---5--|
   

    E5               E5                  E5            E5        D  A
    xx  xx  xx  xx   xx x xx xx xx xx xx x xxxx  xx  xx   x xxxx  x x  x
  e|----------------|----------------|----------------|----------------|
  B|----------------|----------------|----------------|----------------|
  G|----------------|----------------|----------------|----------------|
  D|----------------|----------------|----------------|-----------7----|
  A|22--22--22--22--|22--22--22--22--|2----2--22--22--|2----2--22-5-7--|
  E|00--00--00--00--|00--00--00--00--|0-3220--00--00--|0322-0--00---5--|


    E5          F5   E5          F5   E5          F5   E5       
    xx  xx  xx  x    xx  xx  xx  x    xx  xx  xx  x                    
  e|----------------|----------------|----------------|----------------|
  B|----------------|----------------|----------------|----------------|
  G|----------------|----------------|----------------|----------------|
  D|----------------|----------------|----------------|----------------|
  A|22--22--22-3----|22--22--22-3----|22--22--22-3----|2----2--2-----2-|
  E|00--00--00-1----|00--00--00-1----|00--00--00-1----|0322-0--0-322-0-|



Bridge:
    E5               E5                  E5            E5        D  A
        
  e|----------------|----------------|----------------|----------------|
  B|----------------|----------------|----------------|----------------|
  G|----------------|----------------|----------------|----------------|
  D|----------------|----------------|----------------|-----------7----|
  A|22--22--22--22--|22--22--22--22--|2----2--22--22--|2----2--22-5-7--|
  E|00--00--00--00--|00--00--00--00--|0322-0--00--00--|0322-0--00---5--|



Vers:
    E5               E5                  E5            E5        D  A
           
  e|----------------|----------------|----------------|----------------|
  B|----------------|----------------|----------------|----------------|
  G|----------------|----------------|----------------|----------------|
  D|----------------|----------------|----------------|-----------7----|
  A|22--22--22--22--|22--22--22--22--|2----2--22--22--|2----2--22-5-7--|
  E|00--00--00--00--|00--00--00--00--|0-3220--00--00--|0322-0--00---5--|


    E5               E5                  E5            E5        D  A
           
  e|----------------|----------------|----------------|----------------|
  B|----------------|----------------|----------------|----------------|
  G|----------------|----------------|----------------|----------------|
  D|----------------|----------------|----------------|-----------7----|
  A|22--22--22--22--|22--22--22--22--|2----2--22--22--|2----2--22-5-7--|
  E|00--00--00--00--|00--00--00--00--|0-3220--00--00--|0322-0--00---5--|


    E5          F5   E5          F5   E5          F5   E5       
                            
  e|----------------|----------------|----------------|----------------|
  B|----------------|----------------|----------------|----------------|
  G|----------------|----------------|----------------|----------------|
  D|----------------|----------------|----------------|----------------|
  A|22--22--22-3----|22--22--22-3----|22--22--2----2--|2----2--2-----7-|
  E|00--00--00-1----|00--00--00-1----|00--00--0322-0--|0322-0--0-322-5-|



Chorus:

Guitar1 o.Piano
Riff 2
  e|----------------|----------------|----------------|----------------||
  B|----------------|----------------|----------------|----------------||
  G|---7-9-----7-9--|---7-9-----7----|---7-9-----7-9--|---7-9-----7----||
  D|7-------7-------|7-------7----10-|7-------7-------|7-------7----10-||
  A|----------------|----------------|----------------|----------------||
  E|----------------|----------------|----------------|----------------||
                                                                        |
                                                                        |
Guitar2                                                                  >
    A5      F5       C5      G5       A5      F5       C5      G5       |
                                                                        |
  e|----------------|----------------|----------------|----------------||
  B|----------------|----------------|----------------|----------------||
  G|----------------|----------------|----------------|----------------||
  D|----------------|55--5-----------|----------------|55--5-----------||
  A|77--7---33--3---|33--3---55--5---|77--7---33--3---|33--3---55--5---||
  E|55--5---11--1---|--------33--3---|55--5---11--1---|--------33--3---||


Guitar1 o.Piano
Riff 2
  e|----------------|----------------|----------------|----------------||
  B|----------------|----------------|----------------|----------------||
  G|---7-9-----7-9--|---7-9-----7----|---7-9-----7-9--|---7-9-----7----||
  D|7-------7-------|7-------7----10-|7-------7-------|7-------7----10-||
  A|----------------|----------------|----------------|----------------||
  E|----------------|----------------|----------------|----------------||
                                                                        |
                                                                        |
Guitar2                                                                  >
    A5      F5       C5      G5       A5      F5       C5      G5       |
                                                                        |
  e|----------------|----------------|----------------|----------------||
  B|----------------|----------------|----------------|----------------||
  G|----------------|----------------|----------------|----------------||
  D|----------------|55--5-----------|----------------|55--5-----------||
  A|77--7---33--3---|33--3---55--5---|77--7---33--3---|33--3---55--5---||
  E|55--5---11--1---|--------33--3---|55--5---11--1---|--------33--3---||


Guitar1 o.Piano
Riff 2
  e|----------------|----------------|----------------|----------------||
  B|----------------|----------------|----------------|----------------||
  G|---7-9-----7-9--|---7-9-----7----|---7-9-----7-9--|---7-9-----7----||
  D|7-------7-------|7-------7----10-|7-------7-------|7-------7----10-||
  A|----------------|----------------|----------------|----------------||
  E|----------------|----------------|----------------|----------------||
                                                                        |
                                                                        |
Guitar2                                                                  >
    A5      F5       C5      G5       A5      F5       C5      G5       |
                                                                        |
  e|----------------|----------------|----------------|----------------||
  B|----------------|----------------|----------------|----------------||
  G|----------------|----------------|----------------|----------------||
  D|----------------|55--5-----------|----------------|55--5-----------||
  A|77--7---33--3---|33--3---55--5---|77--7---33--3---|33--3---55--5---||
  E|55--5---11--1---|--------33--3---|55--5---11--1---|--------33--3---||


Guitar1 o.Piano
Riff 2
  e|----------------|----------------|----------------|----------------||
  B|----------------|----------------|----------------|----------------||
  G|---7-9-----7-9--|---7-9-----7----|---7-9-----7-9--|---7-9-----7----||
  D|7-------7-------|7-------7----10-|7-------7-------|7-------7----10-||
  A|----------------|----------------|----------------|----------------||
  E|----------------|----------------|----------------|----------------||
                                                                        |
                                                                        |
Guitar2                                                                  >
    A5      F5       C5      G5       A5      F5       C5      G5       |
                                                                        |
  e|----------------|----------------|----------------|----------------||
  B|----------------|----------------|----------------|----------------||
  G|----------------|----------------|----------------|----------------||
  D|----------------|55--5-----------|----------------|55--5-----------||
  A|77--7---33--3---|33--3---55--5---|77--7---33--3---|33--3---55--5---||
  E|55--5---11--1---|--------33--3---|55--5---11--1---|--------33--3---||


    F5               B5       E5
                            
  e|----------------|----------7-----|
  B|----------------|----------5-----|
  G|----------------|----------------|
  D|----------------|----------------|
  A|3333333333333333|99999999--------|
  E|1111111111111111|77777777--------|



Vers:
    E5               E5                  E5            E5        D  A
           
  e|----------------|----------------|----------------|----------------|
  B|----------------|----------------|----------------|----------------|
  G|----------------|----------------|----------------|----------------|
  D|----------------|----------------|----------------|-----------7----|
  A|22--22--22--22--|22--22--22--22--|2----2--22--22--|2----2--22-5-7--|
  E|00--00--00--00--|00--00--00--00--|0-3220--00--00--|0322-0--00---5--|


    E5               E5                  E5            E5        D  A
           
  e|----------------|----------------|----------------|----------------|
  B|----------------|----------------|----------------|----------------|
  G|----------------|----------------|----------------|----------------|
  D|----------------|----------------|----------------|-----------7----|
  A|22--22--22--22--|22--22--22--22--|2----2--22--22--|2----2--22-5-7--|
  E|00--00--00--00--|00--00--00--00--|0-3220--00--00--|0322-0--00---5--|


    E5          F5   E5          F5   E5               E5       
                            
  e|----------------|----------------|----------------|----------------|
  B|----------------|----------------|----------------|----------------|
  G|----------------|----------------|----------------|----------------|
  D|----------------|----------------|----------------|----------------|
  A|22--22--22-3----|22--22--22-3----|22--22--22--22--|2--2--------2---|
  E|00--00--00-1----|00--00--00-1----|00--00--00--00--|0--0--------0---|




Chorus:

Guitar1 o.Piano
Riff 2
  e|----------------|----------------|----------------|----------------||
  B|----------------|----------------|----------------|----------------||
  G|---7-9-----7-9--|---7-9-----7----|---7-9-----7-9--|---7-9-----7----||
  D|7-------7-------|7-------7----10-|7-------7-------|7-------7----10-||
  A|----------------|----------------|----------------|----------------||
  E|----------------|----------------|----------------|----------------||
                                                                        |
                                                                        |
Guitar2                                                                  >
    A5      F5       C5      G5       A5      F5       C5      G5       |
                                                                        |
  e|----------------|----------------|----------------|----------------||
  B|----------------|----------------|----------------|----------------||
  G|----------------|----------------|----------------|----------------||
  D|----------------|55--5-----------|----------------|55--5-----------||
  A|77--7---33--3---|33--3---55--5---|77--7---33--3---|33--3---55--5---||
  E|55--5---11--1---|--------33--3---|55--5---11--1---|--------33--3---||


Guitar1  o.Piano
Riff 2
  e|----------------|----------------|----------------|----------------||
  B|----------------|----------------|----------------|----------------||
  G|---7-9-----7-9--|---7-9-----7----|---7-9-----7-9--|---7-9-----7----||
  D|7-------7-------|7-------7----10-|7-------7-------|7-------7----10-||
  A|----------------|----------------|----------------|----------------||
  E|----------------|----------------|----------------|----------------||
                                                                        |
                                                                        |
Guitar2                                                                  >
    A5      F5       C5      G5       A5      F5       C5      G5       |
                                                                        |
  e|----------------|----------------|----------------|----------------||
  B|----------------|----------------|----------------|----------------||
  G|----------------|----------------|----------------|----------------||
  D|----------------|55--5-----------|----------------|55--5-----------||
  A|77--7---33--3---|33--3---55--5---|77--7---33--3---|33--3---55--5---||
  E|55--5---11--1---|--------33--3---|55--5---11--1---|--------33--3---||


Guitar1  o.Piano
Riff 2
  e|----------------|----------------|----------------|----------------||
  B|----------------|----------------|----------------|----------------||
  G|---7-9-----7-9--|---7-9-----7----|---7-9-----7-9--|---7-9-----7----||
  D|7-------7-------|7-------7----10-|7-------7-------|7-------7----10-||
  A|----------------|----------------|----------------|----------------||
  E|----------------|----------------|----------------|----------------||
                                                                        |
                                                                        |
Guitar2                                                                  >
    A5      F5       C5      G5       A5      F5       C5      G5       |
                                                                        |
  e|----------------|----------------|----------------|----------------||
  B|----------------|----------------|----------------|----------------||
  G|----------------|----------------|----------------|----------------||
  D|----------------|55--5-----------|----------------|55--5-----------||
  A|77--7---33--3---|33--3---55--5---|77--7---33--3---|33--3---55--5---||
  E|55--5---11--1---|--------33--3---|55--5---11--1---|--------33--3---||


Guitar1  o.Piano
Riff 2
  e|----------------|----------------|----------------|----------------||
  B|----------------|----------------|----------------|----------------||
  G|---7-9-----7-9--|---7-9-----7----|---7-9-----7-9--|---7-9-----7----||
  D|7-------7-------|7-------7----10-|7-------7-------|7-------7----10-||
  A|----------------|----------------|----------------|----------------||
  E|----------------|----------------|----------------|----------------||
                                                                        |
                                                                        |
Guitar2                                                                  >
    A5      F5       C5      G5       A5      F5       C5      D5       |
                                                                        |
  e|----------------|----------------|----------------|----------------||
  B|----------------|----------------|----------------|----------------||
  G|----------------|----------------|----------------|----------------||
  D|----------------|55--5-----------|----------------|55--5---77--7---||
  A|77--7---33--3---|33--3---55--5---|77--7---33--3---|33--3---55--5---||
  E|55--5---11--1---|--------33--3---|55--5---11--1---|----------------||


[ Tab from: http://www.guitartabs.cc/tabs/n/nu_pagadi/sweetest_poison_tab_ver_2.html ]
Guitar 1 o.Piano 
Riff 1
  e|----------------|----------------|----------------|----------------||
  B|-10-12---10-12--|-10-12---10-12--|-10-12---10-12--|-10-12---10-12--||
  G|9-------9-------|9-------9-------|9-------9-------|9-------9-------||
  D|----------------|----------------|----------------|----------------||
  A|----------------|----------------|----------------|----------------||
  E|----------------|----------------|----------------|----------------||
                                                                        |
                                                                        |
Guitar2                                                                  >
    E5      C5       D5      G5       E5      C5       D5      G5       |
                                                                        |
  e|----------------|----------------|----------------|----------------||
  B|----------------|----------------|----------------|----------------||
  G|----------------|----------------|----------------|----------------||
  D|99--9---55--5---|77--7-----------|99--9---55--5---|77--7-----------||
  A|77--7---33--3---|55--5---55--5---|77--7---33--3---|55--5---55--5---||
  E|----------------|--------33--3---|----------------|--------33--3---||


Guitar 1 o.Piano 
Riff 1
  e|----------------|----------------|----------------|----------------||
  B|-10-12---10-12--|-10-12---10-12--|-10-12---10-12--|-10-12---10-12--||
  G|9-------9-------|9-------9-------|9-------9-------|9-------9-------||
  D|----------------|----------------|----------------|----------------||
  A|----------------|----------------|----------------|----------------||
  E|----------------|----------------|----------------|----------------||
                                                                        |
                                                                        |
Guitar2                                                                  >
    E5      C5       D5      G5       E5      C5       D5      G5       |
                                                                        |
  e|----------------|----------------|----------------|----------------||
  B|----------------|----------------|----------------|----------------||
  G|----------------|----------------|----------------|----------------||
  D|99--9---55--5---|77--7-----------|99--9---55--5---|77--7-----------||
  A|77--7---33--3---|55--5---55--5---|77--7---33--3---|55--5---5---5---||
  E|----------------|--------33--3---|----------------|--------3---3---||



Bridge:
    E5               E5                  E5            E5           A
        
  e|----------------|----------------|----------------|----------------|
  B|----------------|----------------|----------------|----------------|
  G|----------------|----------------|----------------|----------------|
  D|----------------|----------------|----------------|----------------|
  A|22--22--22--22--|22--22--2----2--|22--22--2----2--|2----2--2----7--|
  E|00--00--00--00--|00--00--0322-0--|00--00--0322-0--|0322-0--0223-5--|



Guitar1 o.Piano
Riff 2
  e|----------------|----------------|----------------|----------------||
  B|----------------|----------------|----------------|----------------||
  G|---7-9-----7-9--|---7-9-----7----|---7-9-----7-9--|---7-9-----7----||
  D|7-------7-------|7-------7----10-|7-------7-------|7-------7----10-||
  A|----------------|----------------|----------------|----------------||
  E|----------------|----------------|----------------|----------------||
                                                                        |
                                                                        |
Guitar2                                                                  >
    A5      F5       C5      G5       A5      F5       C5      G5       |
    xx      xx       xx      xx       xx      xx       xx      xx       |
  e|----------------|----------------|----------------|----------------||
  B|----------------|----------------|----------------|----------------||
  G|----------------|----------------|----------------|----------------||
  D|----------------|----------------|----------------|----------------||
  A|----------------|----------------|----------------|----------------||
  E|----------------|----------------|----------------|----------------||


Guitar1 o.Piano
Riff 2
  e|----------------|----------------|----------------|----------------||
  B|----------------|----------------|----------------|----------------||
  G|---7-9-----7-9--|---7-9-----7----|---7-9-----7-9--|---7-9-----7----||
  D|7-------7-------|7-------7----10-|7-------7-------|7-------7----10-||
  A|----------------|----------------|----------------|----------------||
  E|----------------|----------------|----------------|----------------||
                                                                        |
                                                                        |
Guitar2                                                                  >
    A5      F5       C5      G5       A5      F5       C5      G5       |
                                                                        |
  e|----------------|----------------|----------------|----------------||
  B|----------------|----------------|----------------|----------------||
  G|----------------|----------------|----------------|----------------||
  D|----------------|55--5-----------|----------------|----------------||
  A|77--7---33--3---|33--3---55--5---|7---------------|----------------||
  E|55--5---11--1---|--------33--3---|5---------------|----------------||


Chorus:

Guitar1 o.Piano
Riff 2
  e|----------------|----------------|----------------|----------------||
  B|----------------|----------------|----------------|----------------||
  G|---7-9-----7-9--|---7-9-----7----|---7-9-----7-9--|---7-9-----7----||
  D|7-------7-------|7-------7----10-|7-------7-------|7-------7----10-||
  A|----------------|----------------|----------------|----------------||
  E|----------------|----------------|----------------|----------------||
                                                                        |
                                                                        |
Guitar2                                                                  >
    A5      F5       C5      G5       A5      F5       C5      G5       |
                                                                        |
  e|----------------|----------------|----------------|----------------||
  B|----------------|----------------|----------------|----------------||
  G|----------------|----------------|----------------|----------------||
  D|----------------|55--5-----------|----------------|55--5-----------||
  A|77--7---33--3---|33--3---55--5---|77--7---33--3---|33--3---55--5---||
  E|55--5---11--1---|--------33--3---|55--5---11--1---|--------33--3---||


Guitar1 o.Piano
Riff 2
  e|----------------|----------------|----------------|----------------||
  B|----------------|----------------|----------------|----------------||
  G|---7-9-----7-9--|---7-9-----7----|---7-9-----7-9--|---7-9-----7----||
  D|7-------7-------|7-------7----10-|7-------7-------|7-------7----10-||
  A|----------------|----------------|----------------|----------------||
  E|----------------|----------------|----------------|----------------||
                                                                        |
                                                                        |
Guitar2                                                                  >
    A5      F5       C5      G5       A5      F5       C5      G5       |
                                                                        |
  e|----------------|----------------|----------------|----------------||
  B|----------------|----------------|----------------|----------------||
  G|----------------|----------------|----------------|----------------||
  D|----------------|55--5-----------|----------------|55--5-----------||
  A|77--7---33--3---|33--3---55--5---|77--7---33--3---|33--3---55--5---||
  E|55--5---11--1---|--------33--3---|55--5---11--1---|--------33--3---||


Guitar1 o.Piano
Riff 2
  e|----------------|----------------|----------------|----------------||
  B|----------------|----------------|----------------|----------------||
  G|---7-9-----7-9--|---7-9-----7----|---7-9-----7-9--|---7-9-----7----||
  D|7-------7-------|7-------7----10-|7-------7-------|7-------7----10-||
  A|----------------|----------------|----------------|----------------||
  E|----------------|----------------|----------------|----------------||
                                                                        |
                                                                        |
Guitar2                                                                  >
    A5      F5       C5      G5       A5      F5       C5      G5       |
                                                                        |
  e|----------------|----------------|----------------|----------------||
  B|----------------|----------------|----------------|----------------||
  G|----------------|----------------|----------------|----------------||
  D|----------------|55--5-----------|----------------|55--5-----------||
  A|77--7---33--3---|33--3---55--5---|77--7---33--3---|33--3---55--5---||
  E|55--5---11--1---|--------33--3---|55--5---11--1---|--------33--3---||


Guitar1 o.Piano
Riff 2
  e|----------------|----------------|----------------|----------------||
  B|----------------|----------------|----------------|----------------||
  G|---7-9-----7-9--|---7-9-----7----|---7-9-----7-9--|---7-9-----7----||
  D|7-------7-------|7-------7----10-|7-------7-------|7-------7----10-||
  A|----------------|----------------|----------------|----------------||
  E|----------------|----------------|----------------|----------------||
                                                                        |
                                                                        |
Guitar2                                                                  >
    A5      F5       C5      G5       A5      F5       C5      G5       |
                                                                        |
  e|----------------|----------------|----------------|----------------||
  B|----------------|----------------|----------------|----------------||
  G|----------------|----------------|----------------|----------------||
  D|----------------|55--5-----------|----------------|55--5-----------||
  A|77--7---33--3---|33--3---55--5---|77--7---33--3---|33--3---55--5---||
  E|55--5---11--1---|--------33--3---|55--5---11--1---|--------33--3---||


    F5               B5          E5
                            
  e|----------------|----------7-----|
  B|----------------|----------5-----|
  G|----------------|----------------|
  D|----------------|----------------|
  A|3333333333333333|99999999--------|
  E|1111111111111111|77777777--------|



riif 1.
Poison                    poison (you´re my swetest poisn) 

Vers:
E5                        E5                      E5            E5       D5  A5
Ich  bin  kein  Dämon,    doch etwas Böses ich da schon (huu, hu, - huu, hu) 


E5                        E5                       E5          E5     D5  A5
In meinem Kopf, in meinem Blut, genau darum bin so gut (huu, hu, - huu, hu)


E5                              F5     E5                 F5
Ich bin das Wasser in der Wüste,       Reptil im Paradies,


E5                              F5     E5
Niemand dem ich ein Lächeln schenk,    der sich nicht Küssen ließ.

Bridge:
E5               E5                E5                E5    D5    A5



Vers:
E5                        E5                    E5           E5       D5  A5
Die Augen sind geschlossen.Ich ziele nach Gefühl    (huu, hu, - huu, hu)


E5                        E5                      E5           E5      D5  A5
Bewege mich im Kreisen und komm trotzdem an mein Ziel(huu, hu, - huu, hu)


E5                              F5     E5                 F5
Ich    bin   Nitro - glitze - rin,    Lösche Feuer mit Benzin 


E5                                  E5                        A5
Wer mich in seinen Venen fühtl     Wird mir nicht mehr entfieh´n




Chorus:
A5      F5       C5      G5      A5      F5       C5         G5
        See the  fallen  angels  pr   -   ay, (for my sweetest poison)


A5      F5       C5      G5      A5      F5        C5        G5
       I can take these  tears   aw   -    ay,(you´re my sweetest poison)


A5         F5        C5      G5        A5      F5        C5        G5
    I crash and I burn and I freeze in he       -    ll, for your  poison
 

A5         F5        C5        G5        A5        F5         
Yeah I´m living my live in the dark of your spe  -  ll,

              C5        G5
you´re my sweetest poison


F5         B5     E5




Vers:
E5                        E5                      E5          E5       D5  A5
Wer hat dir gesagt,  dass ich im Herzen schuldlos bin  (huu, hu, - huu, hu)


E5                        E5                      E5          E5       D5  A5
Die Sünde liegt im Schlaf,mit dir erwacht das Höllenkind(huu, hu, - huu, hu)


E5                              F5        E5                       F5
  Vom      Himmel     abgestürzt,      erleuchtet in der  Dunkelheit


E5                        E5                           A5 
Die  Macht  der Liebe,    hält für dich das süße Gift bereit




Chorus:
A5      F5       C5      G5      A5      F5       C5         G5
        See the  fallen  angels  pr   -  ay, (for my sweetest poison)


A5      F5       C5      G5      A5      F5        C5        G5
       I can take these  tears   aw   -  ay,(you´re my sweetest poison)


A5         F5        C5        G5        A5        F5          C5        G5
    I crash and I burn and I   freeze in he        -       ll, for your  poison
 

A5         F5        C5        G5        A5        F5          C5        D5
 Yeah I´m living my live in the dark of your spe  -  ll, you´re my sweetest poison



E5         C5        D5         G5       E5        C5           D5       G5    F#5
     Feel me rushing through your vai    -  ns(feel me rushing through your vai  -  ns)



E5         C5        D5         G5       E5        C5           D5       G5    F#5
   Can  you  feel  the  precious   pa            -             in    
   


E5               E5                E5                E5           A5
 poi         -        son           (huu, hu,     -   huu, hu)




Vers:
E5                        E5                      E5            E5       D5  A5
Willst   du   die   Engel  fallen    se     -    h´n
 


E5                        E5                     | 
Bis  sie   in   Tränen   vor  dir    ste    -    h´n(For my sweetest poison)




Chorus:
A5      F5       C5      G5      A5      F5       C5         G5
"Poison"See the  fallen  angels  pr   -   ay, (for my sweetest poison) 

A5      F5       C5      G5      A5      F5        C5        G5
       I can take  these  tears  aw   -   ay,(you´re my sweetest poison)
  

A5         F5        C5        G5        A5        F5          C5        G5
    I crash and I burn and I   freeze in he        -       ll, for your  poison
 

A5         F5        C5        G5        A5        F5          C5        G5
 Yeah I´m living my live in the dark of your spe  -  ll, you´re my sweetest poison


F5         B5     E5 
                 Poison
Comments