Nsync And Gloria Estefan - Music Of The Heart Chords & Tabs

 

Music Of The Heart Chords & Tabs

Nsync And Gloria Estefan Chords & Tabs

Version: 1 Type: Tab 0 ratings
1 star 2 stars 3 stars 4 stars 5 stars
comments

Music Of The Heart Tab

Music Of My Heart
By: *N Sync & Gloria Estefan
Words by: Diane Warren
[ Tab from: http://www.guitartabs.cc/tabs/n/nsync_and_gloria_estefan/music_of_the_heart_tab.html ]
1. ---------------------------------------------------------------------------------------------------------------------------------------------------------------2. -----------------------------------------------------------------------------------------------------------6-6-6-5-5-3-1/1-5-3-1-1-5-3-0/0-6-6-6/6---
3. -* 4-4-2-2-4/4/4-5-7-7-5-5/5-4-5-5---------------------------------------------------------------------------------------------------------------------
4. -------------------------------------------------------------9-9/9-12/12-10—9-9-7-9/9-79/9-9--------------------------------------------------------
5. ----------------------------------------------8-8/8-8-12----------------------------------------------------------------------------------------------------
6. ---------------------------------------------------------------------------------------------------------------------------------------------------------------
									
1. --------------------------------------------------------------------------------------------------------------------------------------------------------------
2. -6-8/8-3-5/5-3-5/5-3-5/5-3-6/6-3-3-3-6-5-3-1/1-0-0/0-1-3-5-6-5-3-1/1-0-6/6--------------------
3. ---------------------------------------------------------------------------------------------------------------------------------------------------------------
4. ---------------------------------------------------------------------------------------------------------------------------------------------------------------
5. ---------------------------------------------------------------------------------------------------------------------------------------------------------------
6. ---------------------------------------------------------------------------------------------------------------------------------------------------------------

this is the melody if you have a problem email me at amoon4@aol.com
Comments