Nrok - Feedback Chords & Tabs

 

Feedback Chords & Tabs

Nrok Chords & Tabs

Version: 1 Type: Tab 0 ratings
1 star 2 stars 3 stars 4 stars 5 stars
comments

Feedback Tab

FEEDBACK
by n'RoK

Intro

|---------------------------------------------|
|---------------------------------------------|
|-------------5-5-5-5-5--------7-7------------|
|-7-7-7-7-7---5-5-5-5-5---5-5--7-7--7-7-7-7-7-|
|-7-7-7-7-7---3-3-3-3-3---5-5--5-5--7-7-7-7-7-| play 6x
|-5-5-5-5-5---------------3-3-------5-5-5-5-5-|


Fill 1

|------------------------------------|
|------------------------------------|
|------------------------------------|
|------------------------------------|
|--------------3-5--------------3-5--| play 2x
|-5--5--5--5-5-----1--1--3--3-3------|


Chorus

|---------------------------------|
|---------------------------------|
|---------------------------------|
|-7-7-7-7-7-7-7-7-3-3-3-3-5-5-5-5-|
|-7-7-7-7-7-7-7-7-3-3-3-3-5-5-5-5-| play 4x
|-5-5-5-5-5-5-5-5-1-1-1-1-3-3-3-3-|


Fill 2

|---------------------------------|
|---------------------------------|
|---------------------------------|
|-7-7-7-7-7-7-7-7-3-3-3-3-5-5-5-5-|
|-7-7-7-7-7-7-7-7-3-3-3-3-5-5-5-5-| play 2x
|-5-5-5-5-5-5-5-5-1-1-1-1-3-3-3-3-|


Fill 3

|---------------------------------------------|
|---------------------------------------------|
|-------------5-5-5-5-5--------7-7------------|
|-7-7-7-7-7---5-5-5-5-5---5-5--7-7--7-7-7-7-7-|
|-7-7-7-7-7---3-3-3-3-3---5-5--5-5--7-7-7-7-7-| play 2x
|-5-5-5-5-5---------------3-3-------5-5-5-5-5-|


Verse

Chords: A  D  G  A --> 4x
Feedback on guitar 1 --- harmonics on guitar 2


--> Fill 1

--> Chorus

--> Fill 2

--> Fill 3

--> Verse

--> Fill 1

--> Chorus

--> Fill 2 (2x)


Solo (over Fill 3 (2x))
[ Tab from: http://www.guitartabs.cc/tabs/n/nrok/feedback_tab.html ]
|----------10----10h13p10-------10-----------------------------------|
|-------13----13----------13b15----13-10-------------------------10~-|
|-12b14----------------------------------12b14r12p10-12p10-----------|
|----------------------------------------------------------12-10-----|
|--------------------------------------------------------------------|
|--------------------------------------------------------------------|

|----15~-17-15-17p15--------------------------------------------------|
|-15b17~-------------17-15--17p15--17p15--17p15--17p15---17-15--------|
|--------------------------------17-----17-----17-----17-------17-14~-|
|---------------------------------------------------------------------|
|---------------------------------------------------------------------|
|---------------------------------------------------------------------|

|-17p15--17p15--17p15--17p15--17p15--17p15--17p15--17p15-----------------------------|
|------17-----17-----17-----17-----17-----17-----17-----17---------------------------|
|------------------------------------------------------------------------------------|
|----------------------------------------------------------12-10-7-5-7-5-------------|
|------------------------------------------------------------------------7-5-7-5-----|
|--------------------------------------------------------------------------------8-5-|

|------------------------5h8p5---------------------|
|------------8b10-8-5----------8--5h8p5------------|
|-7b9-7-5-------------7-----------------7—5h7p5----|
|---------7-------------------------------------7~-|
|--------------------------------------------------|
|--------------------------------------------------|


--> Fill 1

--> Chorus

--> Fill 2 (2x)

--> Fill 3 (2x)
Comments