Now Noise - Kindheitstraum Chords & Tabs

 

Kindheitstraum Chords & Tabs

Now Noise Chords & Tabs

Version: 3 Type: Tab 0 ratings
1 star 2 stars 3 stars 4 stars 5 stars
comments

Kindheitstraum Tab

E||-------------------------|------------------------|------------------------|
B||-------------------------|------------------------|------------------------|
G||*------------------------|------------------------|------------------------|
D||*------------------------|------------------------|------------------------|
A||-------------------------|------------------------|------------------------|
E||---0--0--0--0--3----4----|--0--0--0--0--4----1----|--0--0--0--0--3----4----|


                       4x
-----------------------||--------------------||---------------------------|
-----------------------||--------------------||---------------------------|
----------------------*||--------------------||*--------------------------|
----------------------*||--------------------||*--------------------------|
-----------------------||--------------------||---------------------------|
--3----1----3----4-----||--0--------0--------||---0--0--0--0--2--2--3--3--|

--------------------------|--------------------------|
--------------------------|--------------------------|
--------------------------|--------------------------|
--------------------------|--------------------------|
--2--2--2--2--------2--2--|--1--1--1--1--1--1--1--1--|
--------------3--3--------|--------------------------|

--------------------------|--------------------------|
--------------------------|--------------------------|
--------------------------|--------------------------|
--------------------------|--------------------------|
--------------------------|--------------------------|
--1--1--1--1--1--1--1--1--|--0--0--0--0--2--2--3--3--|

--------------------------|--------------------------|
--------------------------|--------------------------|
--------------------------|--------------------------|
--------------------------|--------------------------|
--2--2--2--2--------2--2--|--1--1--1--1--1--1--1--1--|
--------------3--3--------|--------------------------|


                                                  2x
--------------------------|-----------------------||---------------------------|
--------------------------|-----------------------||---------------------------|
--------------------------|----------------------*||*--------------------------|
--------------------------|----------------------*||*--------------------------|
--6--6--6--6--5--5--5--5--|--3----2---------------||---------------------------|
--------------------------|------------0----2-----||---0--0--0--0--0--0--0--0--|
[ Tab from: http://www.guitartabs.cc/tabs/n/now_noise/kindheitstraum_tab_ver_3.html ]
----------------------|--------------------------|----------------------|
----------------------|--------------------------|----------------------|
----------------------|--------------------------|----------------------|
----------------------|--------------------------|----------------------|
--3----2--------------|--------------------------|--3----2--------------|
------------0----2----|--0--0--0--0--0--0--0--0--|------------0----2----|

-----------------------||--------------------|--------------------|
-----------------------||--------------------|--------------------|
----------------------*||--------------------|--------------------|
----------------------*||--------------------|--------------------|
-----------------------||--------------------|--------------------|
--3----2----1----2-----||--0--------0--------|--0--------0--------|

|-------------------------|----------------------------|
|-------------------------|----------------------------|
|*------------------------|----------------------------|
|*------------------------|----------------------------|
|-------------------------|----------------------------|
|---0----0--0--0----0--0--|--0----0--0--2----3----5----|

------------------------|----------------------------|------------------------|
------------------------|----------------------------|------------------------|
------------------------|----------------------------|------------------------|
------------------------|----------------------------|------------------------|
------------------------|----------------------------|------------------------|
--0----0--0--0----0--0--|--0----0--0--5----3----2----|--0----0--0--0----0--0--|

----------------------------|--------------------------------|
----------------------------|--------------------------------|
----------------------------|--------------------------------|
----------------------------|--------------------------------|
----------------------------|-----------------5----7----8----|
--0----0--0--2----3----5----|--5----7----8-------------------|


                                 2x
---------------------------------||--------------------|-------------------|
---------------------------------||--------------------|-------------------|
--------------------------------*||*-------------------|-------------------|
--5----7----5-------------------*||*-------------------|-------------------|
-----------------8----7----5-----||--------------------|--5----------------|
---------------------------------||---0----------------|-------------------|


                                         2x
-------------------|---------------------||-------------------------|
-------------------|---------------------||-------------------------|
-------------------|--------------------*||*------------------------|
-------------------|--------------------*||*------------------------|
-------------------|---------------------||-------------------------|
--0----------------|--8------7-----------||---0------------3--2--3--|

-------------------||
-------------------||
-------------------||
-------------------||
-------------------||
--0----------------||
Comments