Now Noise - Der Korper Bin Ich Chords & Tabs

 

Der Korper Bin Ich Chords & Tabs

Now Noise Chords & Tabs

Version: 3 Type: Tab 0 ratings
1 star 2 stars 3 stars 4 stars 5 stars
comments

Der Korper Bin Ich Tab

E||---------------------------|--------------------------|
B||---------------------------|--------------------------|
G||*--------------------------|--------------------------|
D||*--------------------------|--------------------------|
A||---------------7-----------|--------------7--7--7--7--|
E||---0--0--5--5-----0--5--0--|--0--0--5--5--------------|


                                                      4x
--------------------------|---------------------------||
--------------------------|---------------------------||
--------------------------|--------------------------*||
--------------------------|--------------------------*||
--------------------------|--------------------3--2---||
--0--x--0--x--x--0--x--0--|--x--x--0--x--3--2---------||

-------------------------------|-------------------------------|
-------------------------------|-------------------------------|
*------------------------------|-------------------------------|
*------------------------------|-------------------------------|
-------------------------------|-------------------------------|
---12--12--12--0--0--0--12--0--|--12--12--12--0--0--0--12--12--|


                                                               4x
------------------------------|--------------------------------||
------------------------------|--------------------------------||
------------------------------|-------------------------------*||
------------------------------|-------------------------------*||
------------------------------|--------------------------------||
--11--11--11--0--0--0--11--0--|--11--11--11--0--0--0--11--11---||


                                                   4x
-------------------------|-------------------------||
-------------------------|-------------------------||
*------------------------|------------------------*||
*------------------------|------------------------*||
-----------11------10----|--8----------------------||
---8----x----------------|-------x--10------11-----||
[ Tab from: http://www.guitartabs.cc/tabs/n/now_noise/der_korper_bin_ich_tab_ver_3.html ]
---------------------------|------------------------|--------------------------|
---------------------------|------------------------|--------------------------|
*--------------------------|------------------------|--------------------------|
*--------------------------|------------------------|--------------------------|
---------------------------|-------------------3----|--------------------------|
---0--5--4--3--5--4--3--0--|----5--4--3--5--4-------|--0--5--4--3--5--4--3--0--|


                          4x
--------------------------||--------------------------|-----------------------|
--------------------------||--------------------------|-----------------------|
-------------------------*||--------------------------|-----------------------|
-------------------------*||--5--4--3-----------------|-----------------------|
-------------------5--3---||-----------4--3--2--------|--------3----2----3----|
----5--4--3--5--4---------||--------------------3--2--|--0--x-----------------|

-------------------||---------------------------|--------------------------|
-------------------||---------------------------|--------------------------|
-------------------||*--------------------------|--------------------------|
-------------------||*--------------------------|--------------------------|
-------------------||---6--6--------------------|--6--6--------------------|
--0----------------||---------7--6--0--5--6--0--|--------7--6--0--5--6--0--|


                                                     12x
--------------------------|---------------------------||-----------------------|
--------------------------|---------------------------||-----------------------|
--------------------------|--------------------------*||-----------------------|
--------------------------|--------------------------*||-----------------------|
--4--4--------------------|--4--4---------------------||--------3----2----3----|
--------5--4--0--4--5--0--|--------5--4--0--4--5--0---||--0--x-----------------|

-------------------|--------------------||
-------------------|--------------------||
-------------------|--------------------||
-------------------|--------------------||
-------------------|--------------------||
--0----------------|--0--x--------------||
Comments