Now Noise - Das 7 Fleisch Chords & Tabs

 

Das 7 Fleisch Chords & Tabs

Now Noise Chords & Tabs

Version: 3 Type: Tab 0 ratings
1 star 2 stars 3 stars 4 stars 5 stars
comments

Das 7 Fleisch Tab

E||---------------------------|------------------------|
B||---------------------------|------------------------|
G||*--------------------------|------------------------|
D||*--------------------------|------------------------|
A||---------3--3--2--2--------|--2---------------------|
E||---0--0--------------1--1--|-----0--2--3--4----3----|


                                                                  2x
--------------------------|---------------------------------------||
--------------------------|---------------------------------------||
--------------------------|--------------------------------------*||
--------------------------|--------------------------------------*||
--------3--3--2--2--------|--4h-5p-4--3h-4p-3--2h-3p-2--1h-2p-1---||
--0--0--------------1--1--|---------------------------------------||


                                                       4x
---------------------------|---------------------------||
---------------------------|---------------------------||
*--------------------------|--------------------------*||
*--------------------------|--------------------------*||
---------------2-----------|--2-----------2-----2--1---||
---0--0--4--3-----x--4--3--|-----x--4--3-----x---------||


                                                   2x
-----------------------|---------------------------||
-----------------------|---------------------------||
*----------------------|--------------------------*||
*----------------------|--------------------------*||
-----------------------|--2--------2--------2--1---||
---0--0------0--0------|-----0--0-----0--0---------||

---------------------------------------|--------------------------------------|
---------------------------------------|--------------------------------------|
*--------------------------------------|--------------------------------------|
*--------------------------------------|--------------------------------------|
---------------------------------------|--2--2--2--2--2--2--1--1--1--1--1--1--|
---0--0--0--0--0--0--0--0--0--4--3--0--|--------------------------------------|


                                                                              2x
--------------------------------------|---------------------------------------||
--------------------------------------|---------------------------------------||
--------------------------------------|--------------------------------------*||
--------------------------------------|--------------------------------------*||
--------------------------------------|--2--2--2--2--2--2--1--1--1--2--2--2---||
--0--0--0--0--0--0--0--0--0--4--3--0--|---------------------------------------||

---------------------------|--------------------------|
---------------------------|--------------------------|
*--------------------------|--------------------------|
*--------------------------|--------------------------|
---------------6--7--------|--------------6--7--5--6--|
---0--0--0--0--------0--0--|--0--0--0--0--------------|

[ Tab from: http://www.guitartabs.cc/tabs/n/now_noise/das_7_fleisch_tab_ver_3.html ]
                                                      4x
--------------------------|---------------------------||--------------------|
--------------------------|---------------------------||--------------------|
--------------------------|--------------------------*||--------------------|
--------------------------|--------------------------*||--------------------|
--------------6--7--------|--------5--6---------------||--------------------|
--0--0--0--0--------0--0--|--0--0--------3--3--3--3---||--0--x--------------|


                                                                          4x
------------------||--------------------------|---------------------------||
------------------||--------------------------|---------------------------||
------------------||*-------------------------|--------------------------*||
------------------||*-------------------------|--------------------------*||
------------------||-----------2-----3--------|-----------4-----5---------||
------------------||---0----x-----x-----x--0--|--4--3--x-----x-----x--0---||

--------------------|------------------||---------------------------|
--------------------|------------------||---------------------------|
--------------------|------------------||*--------------------------|
--------------------|------------------||*--------------------------|
--------------------|------------------||---------------------------|
--0--x--------------|------------------||---0--0--0--3--2--3--2--3--|

--------------------------|--------------------------|
--------------------------|--------------------------|
--------------------------|--------------------------|
--------------------------|--------------------------|
--------------------------|--------------------------|
--0--0--0--3--2--3--2--3--|--1--1--1--4--3--4--3--4--|


                           2x
---------------------------||-------------------|-------------------|
---------------------------||-------------------|-------------------|
--------------------------*||-------------------|-------------------|
--------------------------*||-------------------|-------------------|
---------------------------||-------------------|-------------------|
--1--1--1--4--3--4--3--4---||--0----------------|--0----------------|

|---------------------------|-------------------------|
|---------------------------|-------------------------|
|*--------------------------|-------------------------|
|*--------------------------|-------------------------|
|---------------------------|--------------------2----|
|---0--2--3--0--2--3--0--2--|--0--2--3--0--2--3-------|


                                                         4x
--------------------------|------------------------------||--------------------|
--------------------------|------------------------------||--------------------|
--------------------------|-----------------------------*||--------------------|
--------------------------|-----------------------------*||--------------------|
--------------------------|--------------------2--3--2---||--------------------|
--0--2--3--0--2--3--0--2--|--0--2--3--0--2--3------------||--5----5------------|

--------------------||---------------------------|------------------------|
--------------------||---------------------------|------------------------|
--------------------||*--------------------------|------------------------|
--------------------||*--------------------------|------------------------|
--------------------||---------------------------|--------------2----2----|
--4----4------------||---0--2--3--0--2--3--0--2--|--3--0--2--3------------|


                                                      2x
--------------------------|---------------------------||
--------------------------|---------------------------||
--------------------------|--------------------------*||
--------------------------|--------------------------*||
--------------------------|---------------------------||
--0--2--3--0--2--3--0--2--|--5--5--5--5--4--4--4--4---||
Comments