Now Noise - Das 7 Fleisch Chords & Tabs

 

Das 7 Fleisch Chords & Tabs

Now Noise Chords & Tabs

Version: 2 Type: Tab 0 ratings
1 star 2 stars 3 stars 4 stars 5 stars
comments

Das 7 Fleisch Tab

   
*******************************************************************************
*   THE NOW NOISE! - Das 7. Fleisch                                           *
*******************************************************************************
written by Thiom Gerhardt

Intro-Riff:
E||-----------------------------------|------------------------|
B||-----------------------------------|------------------------|
G||*----------------------------------|------------------------|
D||*----------------------------------|--4---------------------|
A||-----------3-3-3-3-2-2-2-2---------|--2--2--4--5--6----5----|
E||---0-0-0-0-----------------1-1-1-1-|-----0--2--3--4----3----|

----------------------------------|---------------------------------------||
----------------------------------|---------------------------------------||
----------------------------------|--------------------------------------*||
----------------------------------|--------------------------------------*||
----------3-3-3-3-2-2-2-2---------|--4h-5p-4--3h-4p-3--2h-3p-2--1h-2p-1---||
--0-0-0-0-----------------1-1-1-1-|---------------------------------------||

Riff A:                                                              2x
-----------------------------------|---------------------------------||
-----------------------------------|---------------------------------||
*----------------------------------|--------------------------------*||
*--2---------------4---------------|--4---------------4-------4--3--*||
---2---------------2---------------|--2---------------2-------2--1---||
---0-x-0-0-4-4-3-3---x-0-0-4-4-3-3-|----x-0-0-4-4-3-3---x-0-0--------||


Riff B:                                                             2x
----------------------------------|---------------------------------||
----------------------------------|---------------------------------||
*---------------------------------|--------------------------------*||
*--2------------------------------|--4-----------4-----------4--3--*||
---2------------------------------|--2-----------2-----------2--1---||
---0--0-0-0-0-0-0-0-0-0-0-4-4-3-3-|----x-0-0-0-0---x-0-0-0-0--------||


Riff C:
---------------------------------------|--------------------------------------|
---------------------------------------|--------------------------------------|
*--------------------------------------|--------------------------------------|
*--------------------------------------|--------------------------------------|
---------------------------------------|--2--2--2--2--2--2--1--1--1--1--1--1--|
---0--0--0--0--0--0--0--0--0--4--3--0--|--------------------------------------|


                                                                              2x
--------------------------------------|---------------------------------------||
--------------------------------------|---------------------------------------||
--------------------------------------|--------------------------------------*||
--------------------------------------|--------------------------------------*||
--------------------------------------|--2--2--2--2--2--2--1--1--1--2--2--2---||
--0--0--0--0--0--0--0--0--0--4--3--0--|---------------------------------------||

[ Tab from: http://www.guitartabs.cc/tabs/n/now_noise/das_7_fleisch_tab_ver_2.html ]
Strophe Riff:
---------------------------------|------------------------------|
---------------------------------|------------------------------|
*--------------------------------|------------------------------|
*--------------------------------|------------------------------|
-------------------6--7----------|------------------6--7--5--6--|
---0-0-0-0-0-0-0-0-------0-0-0-0-|--0-0-0-0-0-0-0-0-------------|


                                                              4x
--------------------------------|-----------------------------||
--------------------------------|-----------------------------||
--------------------------------|----------------------------*||
--------------------------------|----------------5--------8--*||
------------------6--7----------|----------5--6-----6--5------||
--0-0-0-0-0-0-0-0-------0-0-0-0-|--0-0-0-0--------------------||


Break:                                    Riff D:
-------------------|-------------------||--------------------------|
-------------------|-------------------||--------------------------|
-------------------|------------------*||*-------------------------|
--2----------------|------------------*||*--2-------4-----5--------|
--2----------------|-------------------||---2-------2-----3--------|
--0----------------|-------------------||---0----x-----x-----0--0--|


                           4x  Guitar-Bridge:
---------------------------||-----------------------------------------|
---------------------------||-----------------------------------------|
--------------------------*||*----------------------------------------|
-----------6-----7--------*||*----------------------------------------|
--6--5-----4-----5---------||---7h-8h-10---------------------5h-7h-8--|
--4--3--x-----x-----0--0---||-------------7h-8h-10--5h-7h-8-----------|

-----------------------------------||
-----------------------------------||
----------------------------------*||
----------------------------------*||
--3h-5h-6--------------------2~----||
-----------3h-5h-6--2h-3h-5--------||


Riff E:
-------------------------------------|----------------------------------|
-------------------------------------|----------------------------------|
*------------------------------------|----------------------------------|
*------------------------------------|----------------------------------|
-------------------------------------|----------------------------------|
-----0-0-0-0-0-0-3-3-2-2-3-3-2-2-3-3-|--0-0-0-0-0-0-3-3-2-2-3-3-2-2-3-3-|


                                                                      2x
----------------------------------|-----------------------------------||
----------------------------------|-----------------------------------||
----------------------------------|----------------------------------*||
----------------------------------|----------------------------------*||
----------------------------------|-----------------------------------||
--1-1-1-1-1-1-4-4-3-3-4-4-3-3-4-4-|--1-1-1-1-1-1-4-4-3-3-4-4-3-3-4-4--||


RUNNING ORDER:
Intro-Riff
Riff A        4x
Riff B        2x
Riff C        2x
Strophe Riff  4x
Break
Riff D        4x
Break
Riff A        4x
Riff B        2x
Riff C        2x
Strophe Riff  4x
Break
Riff D        4x
Guitar-Bridge
Riff A        4x
Riff E        2x
Break
Comments