Novembre - The Music Chords & Tabs

 

The Music Chords & Tabs

Novembre Chords & Tabs

Version: 1 Type: Tab 0 ratings
1 star 2 stars 3 stars 4 stars 5 stars
comments

The Music Tab

   
                              The Music - Novembre
                 From the Album Whish I Could Dream It Again...
                       Copyright 1995?, Plyphemus Records

                        Tab Created On 10/04/98 22.03.25

Author Ugo Gasparri and Daniele Rossini(ugo_er_mejo@geocities.com)

Novembre is a great italian band which is not known as it should be.
I think this is one of the best songs in the album.
There are many keyboards, so some riffs are jumped(too stupid to write)or may be wrong.
Fuck


This Tab Was Created With TabXpert II by Ugo Gasparri
http://members.xoom.com/ugo_er_mejo/main.html


 Tab Notation:
.  - palm mute                          ph    - pinched harmonic
/  - slide up to                        ah    - artificial harmonic
\  - slide down to                      hr    - natural harmonic
~  - vibrato                            p     - pull off
bf - full bend                          h     - hammer on
bh - bend half a step                   ()    - ghost note, sustained note
r  - release bend                       pbh,f - prebend(h-half step, f-full)
t  - tap                                th    - tap harmonic
 - tremolo; note; w - whammy; bar
*  - see comment

Tuning: E(1:E, 2:B, 3:G, 4:D, 5:A, 6:E)
[ Tab from: http://www.guitartabs.cc/tabs/n/novembre/the_music_tab.html ]
                                                                               
E-|------------------------------------------------------------------------|
B-|------------------------------------------------------------------------|
G-|------------------------------------------------------------------------|GTR I
D-|-----------10-----------10-------10-------------------------------------|
A-|-----------10-----------10-------10-------------------------------------|
E-|--8-8-8-8------8-8-8-8------8-8----------------------------------------|
  |                                                                        |
E-|------------------------------------------------------------------------|
B-|------------------------------------------------------------------------|
G-|------------------------------------------------------------------------|GTR II
D-|-----------10-----------10-------10-------------------------------------|
A-|-----------10-----------10-------10-------------------------------------|
E-|--8-8-8-8------8-8-8-8------8-8----------------------------------------|
  |                                                                        |
                            |
G-|------------------------------------------------------------------------|
D-|------------------------------------------------------------------------| BASS
A-|------------------------------------------------------------------------|
E-|--8-8-8-8------8-8-8-8------8-8-8---------------------------------------|
*                                                                          
*                                                                                 
*                                                                                 
E-|------------------------------------------------------------------------|
B-|------------------------------------------------------------------------|
G-|------------------------------------------------------------------------|GTR I
D-|-----------8-----------8-------8----------------------------------------|
A-|-----------8-----------8-------8----------------------------------------|
E-|--6-6-6-6-----6-6-6-6-----6-6-------------------------------------------|
 
E-|------------------------------------------------------------------------|
B-|------------------------------------------------------------------------|
G-|------------------------------------------------------------------------|GTR II
D-|-----------8-----------8-------8----------------------------------------|
A-|-----------8-----------8-------8----------------------------------------|
E-|--6-6-6-6-----6-6-6-6-----6-6-------------------------------------------|
|                                                                        |
G-|------------------------------------------------------------------------|
D-|------------------------------------------------------------------------| BASS
A-|------------------------------------------------------------------------|
E-|--6-6-6-6-----6-6-6-6-----6-6-6-----------------------------------------|
*                                                                                 
*                                                                                 
*                                                                                 
E-|------------------------------------------------------------------------|
B-|------------------------------------------------------------------------|
G-|------------------------------------------------------------------------|GTR I
D-|-----------6-----------6-------6----------------------------------------|
A-|-----------6-----------6-------6----------------------------------------|
E-|--4-4-4-4-----4-4-4-4-----4-4-------------------------------------------|
  |                                                                        |
E-|------------------------------------------------------------------------|
B-|------------------------------------------------------------------------|
G-|------------------------------------------------------------------------|GTR II
D-|-----------6-----------6-------6----------------------------------------|
A-|-----------6-----------6-------6----------------------------------------|
E-|--4-4-4-4-----4-4-4-4-----4-4-------------------------------------------|
  |                                                                        |
G-|------------------------------------------------------------------------|
D-|------------------------------------------------------------------------| BASS
A-|------------------------------------------------------------------------|
E-|--4-4-4-4-----4-4-4-4-----4-4-4-----------------------------------------|
*                                                                                 
*                                                                                 
*
E-|------------------------------------------------------------------------|
B-|------------------------------------------------------------------------|
G-|------------------------------------------------------------------------|GTR I
D-|-----------8-----------8-------8----------------------------------------|
A-|-----------8-----------8-------8----------------------------------------|
E-|--6-6-6-6-----6-6-6-6-----6-6-------------------------------------------|
 
E-|------------------------------------------------------------------------|
B-|------------------------------------------------------------------------|
G-|------------------------------------------------------------------------|GTR II
D-|-----------8-----------8-------8----------------------------------------|
A-|-----------8-----------8-------8----------------------------------------|
E-|--6-6-6-6-----6-6-6-6-----6-6-------------------------------------------|
|                                                                        |
G-|------------------------------------------------------------------------|
D-|------------------------------------------------------------------------| BASS
A-|------------------------------------------------------------------------|
E-|--6-6-6-6-----6-6-6-6-----6-6-6-----------------------------------------|
* Nothing                                                                         
*                                                                                 
*                                                                                 
E-|------------------------------------------------------------------------|
B-|------------------------------------------------------------------------|
G-|------------------------------------------------------------------------|GTR I
D-|-----------10-----------10-------10-------------------------------------|
A-|-----------10-----------10-------10-------------------------------------|
E-|--8-8-8-8------8-8-8-8------8-8----------------------------------------|
  |                                                                        |
E-|------------------------------------------------------------------------|
B-|------------------------------------------------------------------------|
G-|------------------------------------------------------------------------|GTR II
D-|------------------------------------------------------------------------|
A-|--3---------5----------6----------8-------------------------------------|
E-|------------------------------------------------------------------------|
  |                                                                        |
                            
G-|------------------------------------------------------------------------|
D-|------------------------------------------------------------------------| BASS
A-|------------------------------------------------------------------------|
E-|--8-8-8-8------8-8-8-8------8-8-8---------------------------------------|
*                                                                          
*                                                                                 
*                                                                                 
E-|------------------------------------------------------------------------|
B-|------------------------------------------------------------------------|
G-|------------------------------------------------------------------------|GTR I
D-|-----------8-----------8-------8----------------------------------------|
A-|-----------8-----------8-------8----------------------------------------|
E-|--6-6-6-6-----6-6-6-6-----6-6-------------------------------------------|
 
E-|------------------------------------------------------------------------|
B-|------------------------------------------------------------------------|
G-|------------------------------------------------------------------------|GTR II
D-|------------------------------------------------------------------------|
A-|--6---------5----------6----------8-------------------------------------|
E-|------------------------------------------------------------------------|
|                                                                        |
G-|------------------------------------------------------------------------|
D-|------------------------------------------------------------------------| BASS
A-|------------------------------------------------------------------------|
E-|--6-6-6-6-----6-6-6-6-----6-6-6-----------------------------------------|
*                                                                                 
*                                                                                 
*                                                                                 
E-|------------------------------------------------------------------------|
B-|------------------------------------------------------------------------|
G-|------------------------------------------------------------------------|GTR I
D-|-----------6-----------6-------6----------------------------------------|
A-|-----------6-----------6-------6----------------------------------------|
E-|--4-4-4-4-----4-4-4-4-----4-4-------------------------------------------|
  |                                                                        |
E-|------------------------------------------------------------------------|
B-|------------------------------------------------------------------------|
G-|------------------------------------------------------------------------|GTR II
D-|------------------------------------------------------------------------|
A-|--6---------5----------6----------8-------------------------------------|
E-|------------------------------------------------------------------------|
  |                                                                        |
G-|------------------------------------------------------------------------|
D-|------------------------------------------------------------------------| BASS
A-|------------------------------------------------------------------------|
E-|--4-4-4-4-----4-4-4-4-----4-4-4-----------------------------------------|
*                                                                                 
*                                                                                 
*
E-|------------------------------------------------------------------------|
B-|------------------------------------------------------------------------|
G-|------------------------------------------------------------------------|GTR I
D-|-----------8-----------8-------8----------------------------------------|
A-|-----------8-----------8-------8----------------------------------------|
E-|--6-6-6-6-----6-6-6-6-----6-6-------------------------------------------|
  |                                                                        |
E-|------------------------------------------------------------------------|
B-|------------------------------------------------------------------------|
G-|------------------------------------------------------------------------|GTR II
D-|------------------------------------------------------------------------|
A-|--6---------5----------6----------8-------------------------------------|
E-|------------------------------------------------------------------------|

|                                                                        |
G-|------------------------------------------------------------------------|
D-|------------------------------------------------------------------------| BASS
A-|------------------------------------------------------------------------|
E-|--6-6-6-6-----6-6-6-6-----6-6-6-----------------------------------------|
                                                                               
E-|------------------------------------------------------------------------|
B-|------------------------------------------------------------------------|
G-|------------------------------------------------------------------------|GTR I
D-|--5--3--5--6--5--3--5--6--5p3h5-----------------------------------------|
A-|------------------------------------------------------------------------|
E-|------------------------------------------------------------------------|
  |                                                                        |
E-|------------------------------------------------------------------------|
B-|------------------------------------------------------------------------|
G-|------------------------------------------------------------------------|GTR II
D-|------------------------------------------------------------------------|
A-|--5---------------------------------------------------------------------|
E-|--3---------------------------------------------------------------------|
  |                                                                        |
G-|------------------------------------------------------------------------|
D-|------------------------------------------------------------------------| BASS
A-|------------------------------------------------------------------------|
E-|--3---------------------------------------------------------------------|
*                                                                                 
*                                                                                 
*                                                                                 
E-|------------------------------------------------------------------------|
B-|------------------------------------------------------------------------|
G-|------------------------------------------------------------------------|GTR I
D-|------------10------------10------------10-----------10-----------------|
A-|------------10------------10------------10-----------10-----------------|
E-|--8-8-8-8------8-8-8-8--------8-8-8-8-------8-8-8-8---------------------|
  |                                                                        |
E-|------------------------------------------------------------------------|
B-|------------------------------------------------------------------------|
G-|------------------------------------------------------------------------|GTR II
D-|------------8-------------10------------11-----------10-------8---------|
A-|------------8-------------10------------11-----------10-----------------|
E-|--8---8--------8---8----------8---8---------8----8--------8-8-----------|
  |                                                                        |
G-|------------------------------------------------------------------------|
D-|------------------------------------------------------------------------| BASS
A-|------------------------------------------------------------------------|
E-|--8-8-8-8------8-8-8-8--------8-8-8-8-------8-8-8-8---------------------|
*                                                                                 
*                                                                                 
*                                                                                 
E-|------------------------------------------------------------------------|
B-|------------------------------------------------------------------------|
G-|------------------------------------------------------------------------|GTR I
D-|--------5-6-5---5-------------------------------------------------------|
A-|----5-6-------6-----5-6---6-5---5---------------------------------------|
E-|--8---------------6-----6-----6-----------------------------------------|
  |                                                                        |
E-|------------------------------------------------------------------------|
B-|------------------------------------------------------------------------|
G-|------------------------------------------------------------------------|GTR II
D-|--------5-6-5---5-------------------------------------------------------|
A-|----5-6-------6-----5-6---6-5---5---------------------------------------|
E-|--8---------------6-----6-----6-----------------------------------------|
  |                                                                        |
G-|------------------------------------------------------------------------|
D-|------------------------------------------------------------------------| BASS
A-|------------------------------------------------------------------------|
E-|--8-------4-------6-----6-----6-----------------------------------------|
*                                                                                 
*                                                                                 
*                                                                                 
E-|------------------------------------------------------------------------|
B-|------------------------------------------------------------------------|
G-|------------------------------------------------------------------------|GTR I
D-|------------------------------------------------------------------------|
A-|------------------------------------------------------------------------|
E-|------------------------------------------------------------------------|
  |                                                                        |
E-|------------------------------------------------------------------------|
B-|------------------------------------------------------------------------|
G-|------------------------------------------------------------------------|GTR II
D-|------------------------------------------------------------------------|
A-|------------------------------------------------------------------------|
E-|------------------------------------------------------------------------|
  |                                                                        |
G-|------------------------------------------------------------------------|
D-|------------------------------------------------------------------------| BASS
A-|------------------------------------------------------------------------|
E-|------------------------------------------------------------------------|
*                                                                                 
*                                                                                 
*                                                                                 
E-|------------------------------------------------------------------------|
B-|------------------------------------------------------------------------|
G-|------------------------------------------------------------------------|GTR I
D-|------------------------------------------------------------------------|
A-|------------------------------------------------------------------------|
E-|------------------------------------------------------------------------|
  |                                                                        |
E-|------------------------------------------------------------------------|
B-|------------------------------------------------------------------------|
G-|------------------------------------------------------------------------|GTR II
D-|------------------------------------------------------------------------|
A-|------------------------------------------------------------------------|
E-|------------------------------------------------------------------------|
  |                                                                        |
G-|------------------------------------------------------------------------|
D-|------------------------------------------------------------------------| BASS
A-|------------------------------------------------------------------------|
E-|------------------------------------------------------------------------|
*                                                                                 
*                                                                                 
*                                                                                 
E-|------------------------------------------------------------------------|
B-|------------------------------------------------------------------------|
G-|------------------------------------------------------------------------|GTR I
D-|------------------------------------------------------------------------|
A-|------------------------------------------------------------------------|
E-|------------------------------------------------------------------------|
  |                                                                        |
E-|------------------------------------------------------------------------|
B-|------------------------------------------------------------------------|
G-|------------------------------------------------------------------------|GTR II
D-|------------------------------------------------------------------------|
A-|------------------------------------------------------------------------|
E-|------------------------------------------------------------------------|
  |                                                                        |
G-|------------------------------------------------------------------------|
D-|------------------------------------------------------------------------| BASS
A-|------------------------------------------------------------------------|
E-|------------------------------------------------------------------------|
*                                                                                 
*                                                                                 
*                                                                                 
E-|------------------------------------------------------------------------|
B-|------------------------------------------------------------------------|
G-|------------------------------------------------------------------------|GTR I
D-|------------------------------------------------------------------------|
A-|------------------------------------------------------------------------|
E-|------------------------------------------------------------------------|
  |                                                                        |
E-|------------------------------------------------------------------------|
B-|------------------------------------------------------------------------|
G-|------------------------------------------------------------------------|GTR II
D-|------------------------------------------------------------------------|
A-|------------------------------------------------------------------------|
E-|------------------------------------------------------------------------|
  |                                                                        |
G-|------------------------------------------------------------------------|
D-|------------------------------------------------------------------------| BASS
A-|------------------------------------------------------------------------|
E-|------------------------------------------------------------------------|
*                                                                                 
*                                                                                 
*                                                                                 
I hope this will be useful to someone.

Send any comments corrections or suggestions to :
ugo_er_mejo@geocities.com
Comments