Nothingface - Villains Chords & Tabs

 

Villains Chords & Tabs

Nothingface Chords & Tabs

Version: 2 Type: Tab 0 ratings
1 star 2 stars 3 stars 4 stars 5 stars
comments

Villains Tab

   
Song: Villains
Artist: Nothingface
Album: An Audio Guide to Everyday Atrocity
Tabbed by: Christian Murua / silent_warrior_@hotmail.com

Finally..someone tabbed it..and that was me!


Tuning: C G C F A D


Intro
|------------------------------------------------------------|
|------------------------------------------------------------|
|------------------------------------------------------------| x4
|-1-1-1-1-3-3-3-3-4--0-0-7-5-6-4-0-5-3-7-5-6-4-5-0-0-7-5-6-4-|
|-1-1-1-1-3-3-3-3-4--0-0-7-5-6-4-0-5-3-7-5-6-4-5-0-0-7-5-6-4-|
|-1-1-1-1-3-3-3-3-4--0-0-7-5-6-4-0-5-3-7-5-6-4-5-0-0-7-5-6-4-|
PM                   - -         -               - -


Verse
|------------------------------------------------------------|
|------------------------------------------------------------|
|------------------------------------------------------------| x4
|-1-1-1-1-3-3-3-3-4--0-0-7-5-6-4-0-5-3-7-5-6-4-5-0-0-7-5-6-4-|
|-1-1-1-1-3-3-3-3-4--0-0-7-5-6-4-0-5-3-7-5-6-4-5-0-0-7-5-6-4-|
|-1-1-1-1-3-3-3-3-4--0-0-7-5-6-4-0-5-3-7-5-6-4-5-0-0-7-5-6-4-|
PM- - - - - - - - -  - - - - - - - - - - - - - - - - - - - -                 


Chorus
|-0---0---0---0---0---0---0-|
|-0---0---0---0---0---0---0-|
|-0---0---0---0---0---0---0-| x1
|-0---0---0---0---0---0---0-|
|-0---0---0---0---0---0---0-|
|---------------------------|


|------------------------------------------------------------|
|------------------------------------------------------------|
|------------------------------------------------------------| x2
|-1-1-1-1-3-3-3-3-4--0-0-7-5-6-4-0-5-3-7-5-6-4-5-0-0-7-5-6-4-|
|-1-1-1-1-3-3-3-3-4--0-0-7-5-6-4-0-5-3-7-5-6-4-5-0-0-7-5-6-4-|
|-1-1-1-1-3-3-3-3-4--0-0-7-5-6-4-0-5-3-7-5-6-4-5-0-0-7-5-6-4-|
PM                   - -         -               - -


Verse
|------------------------------------------------------------|
|------------------------------------------------------------|
|------------------------------------------------------------| x4
|-1-1-1-1-3-3-3-3-4--0-0-7-5-6-4-0-5-3-7-5-6-4-5-0-0-7-5-6-4-|
|-1-1-1-1-3-3-3-3-4--0-0-7-5-6-4-0-5-3-7-5-6-4-5-0-0-7-5-6-4-|
|-1-1-1-1-3-3-3-3-4--0-0-7-5-6-4-0-5-3-7-5-6-4-5-0-0-7-5-6-4-|
PM- - - - - - - - -  - - - - - - - - - - - - - - - - - - - -


Chorus
|-0---0---0---0---0---0---0-|
|-0---0---0---0---0---0---0-|
|-0---0---0---0---0---0---0-| x1
|-0---0---0---0---0---0---0-|
|-0---0---0---0---0---0---0-|
|---------------------------|


Interlude
|---------------------------------------|
|---------------------------------------|
|---------------------------------------| x2
|-3-0-0-6-3-5-3-3-6-3-5-3-0-6-3-6-3-5-5-|
|-3-0-0-6-3-5-3-3-6-3-5-3-0-6-3-6-3-5-5-|
|-3-0-0-6-3-5-3-3-6-3-5-3-0-6-3-6-3-5-5-|
PM  - -                   -

[ Tab from: http://www.guitartabs.cc/tabs/n/nothingface/villains_tab_ver_2.html ]
|---------------------------------------|
|---------------------------------------|
|---------------------------------------| x2
|-3-0-0-6-3-5-3-3-6-3-5-3-0-6-3-6-3-5-5-|
|-3-0-0-6-3-5-3-3-6-3-5-3-0-6-3-6-3-5-5-|
|-3-0-0-6-3-5-3-3-6-3-5-3-0-6-3-6-3-5-5-|
PM- - - - - - - - - - - - - - - - - - -


|---------------------------------------|
|---------------------------------------|
|---------------------------------------| x2
|-3-0-0-6-3-5-3-3-6-3-5-3-0-6-3-6-3-5-5-|
|-3-0-0-6-3-5-3-3-6-3-5-3-0-6-3-6-3-5-5-|
|-3-0-0-6-3-5-3-3-6-3-5-3-0-6-3-6-3-5-5-|
PM  - -                   -


|---------------------------------------|
|---------------------------------------|
|---------------------------------------| x2
|-3-0-0-6-3-5-3-3-6-3-5-3-0-6-3-6-3-5-5-|
|-3-0-0-6-3-5-3-3-6-3-5-3-0-6-3-6-3-5-5-|
|-3-0-0-6-3-5-3-3-6-3-5-3-0-6-3-6-3-5-5-|
PM- - - - - - - - - - - - - - - - - - -


Bridge
|----------------------------|
|----------------------------|
|----------------------------| x1
|-0-0-0--0-0-0--0-0-0--0-0-0-|
|-0-0-0--0-0-0--0-0-0--0-0-0-|
|-0-0-0--0-0-0--0-0-0--0-0-0-|
PM- -    - -    - -    - -


|----------------------------------------------------|
|----------------------------------------------------|
|----------------------------------------------------| x6
|-0-0-0--0-0-0--0-0-0-------0-0-0--0-0-0-------0-0-1-|
|-0-0-0--0-0-0--0-0-0-3-6-5-0-0-0--0-0-0-3-5-4-0-0-1-|
|-0-0-0--0-0-0--0-0-0-------0-0-0--0-0-0-------0-0-1-|
PM- -    - -    - -         - -    - -         - -


|---------------------------------------------|
|---------------------------------------------|
|---------------------------------------------| x1
|-0-0-0--0-0-0--0-0-0--0-0-0--0-0-0--0-0-0--0-|
|-0-0-0--0-0-0--0-0-0--0-0-0--0-0-0--0-0-0--0-|
|-0-0-0--0-0-0--0-0-0--0-0-0--0-0-0--0-0-0--0-|
PM- -    - -    - -    - -    - -    - -


Interlude 2 - "Sick of all the shit!"
|---------------------------------------|
|---------------------------------------|
|---------------------------------------| x2
|-3-0-0-6-3-5-3-3-6-3-5-3-0-6-3-6-3-5-5-|
|-3-0-0-6-3-5-3-3-6-3-5-3-0-6-3-6-3-5-5-|
|-3-0-0-6-3-5-3-3-6-3-5-3-0-6-3-6-3-5-5-|
PM  - -                   -


|---------------------------------------|
|---------------------------------------|
|---------------------------------------| x2
|-3-0-0-6-3-5-3-3-6-3-5-3-0-6-3-6-3-5-5-|
|-3-0-0-6-3-5-3-3-6-3-5-3-0-6-3-6-3-5-5-|
|-3-0-0-6-3-5-3-3-6-3-5-3-0-6-3-6-3-5-5-|
PM- - - - - - - - - - - - - - - - - - -


|---------------------------------------|
|---------------------------------------|
|---------------------------------------| x2
|-3-0-0-6-3-5-3-3-6-3-5-3-0-6-3-6-3-5-5-|
|-3-0-0-6-3-5-3-3-6-3-5-3-0-6-3-6-3-5-5-|
|-3-0-0-6-3-5-3-3-6-3-5-3-0-6-3-6-3-5-5-|
PM  - -                   -


End
|-----------------|
|-----------------|
|-----------------| x1
|-3-3-3-3-3-3-3-5-|
|-3-3-3-3-3-3-3-5-|
|-3-3-3-3-3-3-3-5-|
Comments