Nothingface - Useless Chords & Tabs

 

Useless Chords & Tabs

Nothingface Chords & Tabs

Version: 1 Type: Tab 0 ratings
1 star 2 stars 3 stars 4 stars 5 stars
comments

Useless Tab

Band: Nothingface
Song: Useless

Tabber: John Cukras
Email: riffreaper@yahoo.com

Tuning: Drop D

Riff 1:
E--------------------------------------------------------------------------|
B--------------------------------------------------------------------------|
G--------------------------------------------------------------------------|
D--------------------------------------------------------------------------|
A---2-3-5----------3-4-6----------2-3-5----------3-4-6--------00-0-0-0-0-0-|
D-3------ x's 5--4------ x's 5--3------ x's 5--4------ x's 4--00-0-0-0-0-0-|
pm                                                            .. . . . . .

Riff 2
E--------------------------------|
B--------------------------------|
G--------------------------------|
D--------------------------------|
A-6/2-00--00--6/2-00-00-00-------|
D-6/2-00--00--6/2-00-00-00 x's 4-|
pm    ..  ..      .. .. ..

Riff 1

Riff 2

Riff 1
[ Tab from: http://www.guitartabs.cc/tabs/n/nothingface/useless_tab.html ]
Riff 3:                                  |   Part was hard to hear   |

E-------------------------------------------------------------------------------------------------------|
B-------------------------------------------------------------------------------------------------------|
G-------------------------------------------------------------------------------------------------------|
D-------------------------------------------------------------------------------------------------------|
A-3/7-9999---------0-5-4444-1-3333--------5-4-----4-5-----3-1------------0-3-/7-7777--------0-3-000000--|
D-3/7-9999-x's 8---0-5-4444-1-3333 x's 4--5-4-000-4-5-000-3-1-000 x's 4--0-3-/7-7777 x's 7--0-3-000000--|
pm                                            ...     ...     ...                               ......

Riff 2 x's 6

Riff 1

Riff 4:
E-----------------|
B-----------------|
G-----------------|
D-7---------------|
A-7---------------|
D---000 x's 40-50-| (till end anyway)
pm  ...
Comments