Nothingface - The Sick Chords & Tabs

 

The Sick Chords & Tabs

Nothingface Chords & Tabs

Version: 1 Type: Bass Tab 0 ratings
1 star 2 stars 3 stars 4 stars 5 stars
comments

The Sick Bass Tab

Song: ?The Sick?
Artist: Nothingface
Album: Everyday Atrocity
Transcribed By: Bryan Bramlett (bryanmb87@aol.com)

Tuning: 1/2 Step Down, Drop D

INTRO:
|-------------------|
|-------------------|
|-13-13-13-13-13-13-|
|--X--X--X--X--X--X-|
|-11-11-11-11-11-11-|
|-------------------|

VERSE:
|---------------------------|
|---------------------------|
|---------------------------|
|---------------------------|
|------5------------5-------|
|-8-00---6-5-3-8-00---6-5-3-|
PM  ..           ..

VERSE 2:
|---------------------------|
|---------------------------|
|---------------------------|
|---------------------------|
|------5------------5-------|
|-8-00---6-5-3-8-00---6-5-3-|

BRIDGE:
|-------------------------------|
|-------------------------------|
|-------------------------------|
|-7-7-7-7-7-7-7-7-6-6-6-3-3-3-3-|
|-7-7-7-7-7-7-7-7-6-6-6-3-3-3-3-|
|-7-7-7-7-7-7-7-7-6-6-6-3-3-3-3-|
[ Tab from: http://www.guitartabs.cc/tabs/n/nothingface/the_sick_btab.html ]
CHORUS:
|----------------------------------------|
|----------------------------------------|
|----------------------------------------|
|-0-10-12-0-12-13-0-10-12-0-12-13-0-8-10-|
|-0-10-12-0-12-13-0-10-12-0-12-13-0-8-10-|
|-0-10-12-0-12-13-0-10-12-0-12-13-0-8-10-|

INTERLUDE:
|-----------------------------------------------|
|-----------------------------------------------|
|-7-------7-------7-------7-------7-------7-----|
|-7-7-5-3-7-7-5-3-7-7-5-3-7-7-5-3-7-7-5-3-7-7-5-|
|-5-7-5-3-5-7-5-3-5-7-5-3-5-7-5-3-5-7-5-3-5-7-5-|
|---7-5-3---7-5-3---7-5-3---7-5-3---7-5-3---7-5-|

INTERLUDE 2:
|------------------------|
|------------------------|
|------------------------|
|-0-0--------------------|
|-0-0--3/5--10/12--12/13-|
|-0-0003/50010/120012/13-|
PM   ..   ..     ..

FILL:
|-------------------|
|-------------------|
|-------------------|
|-12-10-6-5-3-5-----|
|-12-10-6-5-3-5-3---|
|-12-10-6-5-3-5---5-|

OUTRO:
|---------------------------------------------------|
|---------------------------------------------------|
|---------------------------------------------------|
|-5555555544447777888888888444555771111111188844477-|
|-5555555544447777888888888444555771111111188844477-|
|-5555555544447777888888888444555771111111188844477-|
Comments