Nothingface - In Avernus Chords & Tabs

 

In Avernus Chords & Tabs

Nothingface Chords & Tabs

Version: 1 Type: Tab 0 ratings
1 star 2 stars 3 stars 4 stars 5 stars
comments

In Avernus Tab

   
Song: "In Avernus"
Artist: Nothingface
Album: Skeletons
Transcribed By: Bryan Bramlett (bryanmb87@aol.com)

Tuning: Drop D, Down 1/2 Step (Db,Ab,Db,Gb,Bb,Eb)

VERSE:
|-----------------------------------------------------------------|
|-----------------------------------------------------------------|
|-----------------------------------------------------------------|
|-3-----------6---------------------7-------------1---------------|
|-3-3-3-3-3-3-6-6-6-6-6-6-6-6-6-6-6-7-7-7-7-7-7-7-1-1-1-1-1-1-1-1-|
|-3-3-3-3-3-3-6-6-6-6-6-6-6-6-6-6-6-7-7-7-7-7-7-7-1-1-1-1-1-1-1-1-|
pm  . . . . .   . . . . . . . . . .   . . . . . .   . . . . . . .

|-----------------------------------------------------------------|
|-----------------------------------------------------------------|
|-----------------------------------------------------------------|
|-3-----------6---------------------7-----------7-1-----1-4-----4-|
|-3-3-3-3-3-3-6-6-6-6-6-6-6-6-6-6-6-7-7-7-7-7-7-7-1-1-1-1-4-4-4-4-|
|-3-3-3-3-3-3-6-6-6-6-6-6-6-6-6-6-6-7-7-7-7-7-7-7-1-1-1-1-4-4-4-4-|
pm  . . . . .   . . . . . . . . . .   . . . . .     . .     . .

|-----------------------------------------------------------------|
|-----------------------------------------------------------------|
|-----------------------------------------------------------------|
|-3-----------6---------------------7-------------1---------------|
|-3-3-3-3-3-3-6-6-6-6-6-6-6-6-6-6-6-7-7-7-7-7-7-7-1-1-1-1-1-1-1-1-|
|-3-3-3-3-3-3-6-6-6-6-6-6-6-6-6-6-6-7-7-7-7-7-7-7-1-1-1-1-1-1-1-1-|
pm  . . . . .   . . . . . . . . . .   . . . . . .   . . . . . . .

|-----------------------------------------------------------------|
|-----------------------------------------------------------------|
|-----------------------------------------------------------------|
|-3-----------6---------------------7-------------9-9-9-9-9-9-9-9-|
|-3-3-3-3-3-3-6-6-6-6-6-6-6-6-6-6-6-7-7-7-7-7-7-7-9-9-9-9-9-9-9-9-|
|-3-3-3-3-3-3-6-6-6-6-6-6-6-6-6-6-6-7-7-7-7-7-7-7-9-9-9-9-9-9-9-9-|
pm  . . . . .   . . . . . . . . . .   . . . . . .

CHORUS:
|-----------------------------------------------------------------|
|-6-6-6-6-6-6-6-6-6-6-6-6-7-7-7-7-4-4-4-4-4-4-4-4-4-4-4-4-4-4-4-4-|
|-5-5-5-5-5-5-5-5-5-5-5-5-6-6-6-6-3-3-3-3-3-3-3-3-3-3-3-3-3-3-3-3-|
|-3-3-3-3-3-3-3-3-3-3-3-3-4-4-4-4-1-1-1-1-1-1-1-1-1-1-1-1-1-1-1-1-|
|-3-3-3-3-3-3-3-3-3-3-3-3-4-4-4-4-1-1-1-1-1-1-1-1-1-1-1-1-1-1-1-1-|
|-3-3-3-3-3-3-3-3-3-3-3-3-4-4-4-4-1-1-1-1-1-1-1-1-1-1-1-1-1-1-1-1-|
[ Tab from: http://www.guitartabs.cc/tabs/n/nothingface/in_avernus_tab.html ]
|---------------------------------------------------------------------|
|-6-6-6-6-6-6-6-6-6-6-6-6-7-7-7-7---------9-9-9-9---------10-10-10-10-|
|-5-5-5-5-5-5-5-5-5-5-5-5-6-6-6-6-8-8-8-8-8-8-8-8-9-9-9-9--9--9--9--9-|
|-3-3-3-3-3-3-3-3-3-3-3-3-4-4-4-4-6-6-6-6-6-6-6-6-7-7-7-7-7--7-7--7-|
|-3-3-3-3-3-3-3-3-3-3-3-3-4-4-4-4-6-6-6-6-6-6-6-6-7-7-7-7-7--7-7--7-|
|-3-3-3-3-3-3-3-3-3-3-3-3-4-4-4-4-6-6-6-6-6-6-6-6-7-7-7-7-7--7-7--7-|

BRIDGE:
|---------------------------------------------|
|---------------------------------------------|
|-6--6--X-6--6--X-6-X-X-6--6--X-6--6--X-6-X-X-|
|-6--6--X-6--6--X-6-X-X-6--6--X-6--6--X-6-X-X-|
|-4--4--X-4--4--X-4-X-X-4--4--X-4--4--X-4-X-X-|
|---------------------------------------------|

|---------------------------------------------|
|---------------------------------------------|
|-4--4--X-4--4--X-4-X-X-4--4--X-4--4--X-4-X-X-|
|-4--4--X-4--4--X-4-X-X-4--4--X-4--4--X-4-X-X-|
|-2--2--X-2--2--X-2-X-X-2--2--X-2--2--X-2-X-X-|
|---------------------------------------------|

|---------------------------------------------------------|
|---------------------------------------------------------|
|-6--6--X-6--6--X-6-X-X-6--6--X-6--6--6-6-6-6-6-6-6-6-6-6-|
|-6--6--X-6--6--X-6-X-X-6--6--X-6--6--6-6-6-6-6-6-6-6-6-6-|
|-4--4--X-4--4--X-4-X-X-4--4--X-4--4--4-4-4-4-4-4-4-4-4-4-|
|---------------------------------------------------------|

INTERLUDE:
|-------------------------------------------------------|
|-------------------------------------------------------|
|-------------------------------------------------------|
|-9-9-9-9\---9-9-9-9\---9-9-9-9\---9-9-9-9\---9-9-9-9-0-|
|-9-9-9-9\---9-9-9-9\---9-9-9-9\---9-9-9-9\---9-9-9-9-0-|
|-9-9-9-9\---9-9-9-9\---9-9-9-9\---9-9-9-9\---9-9-9-9-0-|

INTERLUDE FILL:
|------------------------|
|------------------------|
|-11-10------------------|
|-------9-11-13-13-13-13-|
|------------------------|
|------------------------|

INTERLUDE 2:
|----------------------------------------------------|
|----------------------------------------------------|
|-10101010-10101010-1010101010101010-101010----------|
|--9-9-9-9--9-9-9-9--9-9-9-9-9-9-9-9--9-9-9-66666444-|
|--9-9-9-9--9-9-9-9--9-9-9-9-9-9-9-9--9-9-9-66666444-|
|--9-9-9-9--9-9-9-9--9-9-9-9-9-9-9-9--9-9-9-66666444-|

|----------------------------------------------------|
|----------------------------------------------------|
|-10101010-10101010-1010101010101010-101010----------|
|--9-9-9-9--9-9-9-9--9-9-9-9-9-9-9-9--9-9-9-66666888-|
|--9-9-9-9--9-9-9-9--9-9-9-9-9-9-9-9--9-9-9-66666888-|
|--9-9-9-9--9-9-9-9--9-9-9-9-9-9-9-9--9-9-9-66666888-|

INTERLUDE 2 END:
|--------------------|
|--------------------|
|--------------------|
|-888888888888-8-6-4-|
|-888888888888-8-6-4-|
|-888888888888-8-6-4-|
pm............
Comments