Nothingface - For All The Sin Chords & Tabs

 

For All The Sin Chords & Tabs

Nothingface Chords & Tabs

Version: 1 Type: Bass Tab 0 ratings
1 star 2 stars 3 stars 4 stars 5 stars
comments

For All The Sin Bass Tab

   
Listen for Timing

Tuning 1 1/2 Steps Down (G,D,A,C#)

[0:00]
Guitar Intro

[0:20]
|---------------------------------------------------------------------------------------|
|---------------------------------------------------------------------------------------|
|---------------------------------------------------------------------------------------|
|--444-----444--------444-----44455522255--444-----444--------444-----44-7-xx-7-xx-7-0--|x3




[0:56]
|---------------------------------|
|---------------------------------|
|---------------------------------|
|-4-------5-------0-------6---7---| x2



[1:19]
|---------------------------------------------------------------------------------------|
|---------------------------------------------------------------------------------------|
|---------------------------------------------------------------------------------------|
|--444-----444--------444-----44455522255--444-----444--------444-----44-7-xx-7-xx-7-0--|x3
[ Tab from: http://www.guitartabs.cc/tabs/n/nothingface/for_all_the_sin_btab.html ]
[1:55]
|---------------------------------|
|---------------------------------|
|---------------------------------|
|-4-------5-------0-------6---7---|x1

[2:07]
|-------------------------------------------------------------------|
|-------------------------------------------------------------------|
|-------------------------------------------------------------------|
|--4-4-4-4-4-4-4-4-5-5-5-5-5-5-5-5-0-0-0-0-0-0-0-0-6-6-6-6-7-7-7-7--|x4

[2:51]
|-------------------------|
|-------------------------|
|-------------------------|
|--444-045-057-078--0575--|x4

[3:01]
Small Guitar Solo

[3:21]
|-------------------------|
|-------------------------|
|-------------------------|
|--444-045-057-078--0575--|x8

[3:41]
|-------------------------------------------------------------------|
|-------------------------------------------------------------------|
|-------------------------------------------------------------------|
|--4-4-4-4-4-4-4-4-5-5-5-5-5-5-5-5-0-0-0-0-0-0-0-0-6-6-6-6-7-7-7-7--|x2

[4:01]
|-------------------------|
|-------------------------|
|-------------------------|
|--444-045-057-078--0575--|x8
Comments