Nothingface - Cant Wait For Violence Chords & Tabs

 

Cant Wait For Violence Chords & Tabs

Nothingface Chords & Tabs

Version: 1 Type: Tab 0 ratings
1 star 2 stars 3 stars 4 stars 5 stars
comments

Cant Wait For Violence Tab

Song: "Can't Wait For Violence"
Artist: Nothingface
Album: Violence
Transcribed By: Bryan Bramlett (bryanmb87@aol.com)

Tuning: I’m not positive on this but it sounds to me as if it’s 
	tuned 1/2 Step Down with the E string tuned all the way down to
	A.  The whole things probably tuned down to Drop A but you can
	play it just as easily this way.

INTRO:
|---------------------------------------------------------------------|
|----0-----0-----0-----0-----0-----0-----0-----0-----0-----0-----0----|
|------0-----0-----0-----0-----0-----0-----------------0-----0-----0--|
|---------------------------------------------------------------------|
|------------------------------------------0--------------------------|
|--6-----7-----9-----4-----6-----7-----9-----5---8-6-----7-----9------|

|-----------------------------|
|----0-----0-----0-----0------|
|------0-----0-----0----------|
|-----------------------------|
|------------------------0----|
|--4-----6-----7-----9-----5--|

VERSE:
|-----------------------------------------------------------|
|-----------------------------------------------------------|
|-------------------------------------------------------888-|
|--------------------------------------------/12-12--88-888-|
|---------5h7-588--------------------5h7-588-/10-10--66-666-|
|--00-0-0---------0000232121--00-0-0------------------------|
PM .. . .         ..........  .. . .

BRIDGE:
|-------------------------------------------|
|-------------------------------------------|
|-------------------------------------------|
|-----------------------------------7-6-----|
|--6h8------6h8-6\2----6h8------6h8---------|
|------0000---------00-----0000---------00--|
PM     ....         ..     ....         ..
[ Tab from: http://www.guitartabs.cc/tabs/n/nothingface/cant_wait_for_violence_tab.html ]
FILL 1:
|-----------------|
|-----------------|
|--10-10--55-5-5--|
|--10-10--55-5-5--|
|---8--8--33-3-3--|
|-----------------|

CHORUS:
|--------------------------|
|--4-4-4-4-5-5-7-----------|
|--4-4-4-4-5-5-7-----------|
|--4-4-4-4-5-5-7-----------|
|--2-2-2-2-3-3-5-----------|
|-----------------2321210--|
PM                ....... 

INTERLUDE:
|-----------------------------------------------------------------|
|-----------------------------------------------------------------|
|-----------------------------------------------------------------|
|----------------------------------------------1010-1010-10-7-77--|
|---------12------10-9-7-9-7-5---------12-------8-8--8-8--8-5-55--|
|-13-0000----0000--------------13-0000----0000--------------------|
PM   ....    ....                 ....    ....

INTERLUDE 2:
|------------------------------------------------------------|
|------------------------------------------------------------|
|--------------------------------------10-1010--7-77--5-5-5--|
|------------------------10-9----------10-1010--7-77--5-5-5--|
|--14-1414-12-14-1414-12------14-1414---8--8-8--5-55--3-3-3--|
|--13-1313----13-1313---------13-1313------------------------|

OUTRO 1: (palm mute 2X then play w/o)
|-------------------------------------|
|-------------------------------------|
|-------------------------------------|
|-------------------------------------|
|--3-1-4-1-3-1-1-3-1-4-1-3-1-1-1-1-1--|
|-------------------------------------|

OUTRO 2: (palm mute 3X, then grad. release last time)
|-------------------------------------|
|-------------------------------------|
|-------------------------------------|
|-------------------------------------|
|-------------------------------------|
|--2-0-3-0-2-0-0-2-0-3-0-2-0-0-0-0-0--|


Comments