Nothingface - Breathe Out Chords & Tabs

 

Breathe Out Chords & Tabs

Nothingface Chords & Tabs

Version: 2 Type: Tab 0 ratings
1 star 2 stars 3 stars 4 stars 5 stars
comments

Breathe Out Tab

   
Listen for Timing

Tuning 1 1/2 Steps Down (G,D,A,C#)

[0:11] 
|---------------------------------|
|---------------------------------|
|---------------------------------|
|-0-3-2-0-3-2-0-3-2-0-3-2-0-3-3-3-| x 4


[0:22]
Small Guitar Solo

[0:28]
|---------------------------|
|---------------------------|
|---------------------------|
|-0-0-0--0-1-0--0-1-0-3-3-3-| x 4

[0:38] 
|---------------------------------------------|
|--------------------1p0------------------2---|
|-1---2-------1---2-------1---2-------1-------|
|---------6-----------------------6-----------|

[0:48]
|-------|
|-------|
|-------|
|-0-0-0-| x 4

[0:58]
|---------------------------|
|---------------------------|
|---------------------------|
|-0-0-0--0-1-0--0-1-0-3-3-3-| x 4 

[1:08]
|---------------------------------------------|
|--------------------1p0------------------2---|
|-1---2-------1---2-------1---2-------1-------|
|---------6-----------------------6-----------|

[1:18]
|------------------------------|
|------------------------------|
|------------------------------|
|-0-3-2-0-3-2-0-3-2-0-3-2-0-3--|
[ Tab from: http://www.guitartabs.cc/tabs/n/nothingface/breathe_out_tab_ver_2.html ]
[1:21]
|-------|
|-------|
|-------|
|-0-0-0-| x 4

[1:31]
|---------------------------|
|---------------------------|
|---------------------------|
|-0-0-0--0-1-0--0-1-0-3-3-3-| x 4 

[1:41]
|------------------------------------------|
|------------------------------------------|
|-1---2-----------7--------1---2-------3---|
|---------0---6-------3------------0-------| x 4
 

[2:20]
|-------------------------------|
|----------3--4--0--------------|
|-1--3--4-----------1--3--4--3--|
|-------------------------------| x 2


[2:41]
|----------------------------------------------------|
|----------------------------------------------------|
|----------------------------------8--8--9--9--9--9--|
|-9-9-9-9-10--9-9-9-10---9-9-9-10--------------------| x 4

[3:00]
|------------------------------------------|
|------------------------------------------|
|------------------------------------------|
|-9999101010101313131399991010101013131313-| x 4

[3:19]
|----------------------------------------------------|
|----------------------------------------------------|
|----------------------------------8--8--9--9--9--9--|
|-9-9-9-9-10--9-9-9-10---9-9-9-10--------------------| x 4
Comments