Nothingface - Breathe Out Chords & Tabs

 

Breathe Out Chords & Tabs

Nothingface Chords & Tabs

Version: 1 Type: Tab 0 ratings
1 star 2 stars 3 stars 4 stars 5 stars
comments

Breathe Out Tab

Song: “Breathe Out”
Artist: Nothingface
Album: Everyday Atrocity
Transcribed By: Bryan Bramlett (bryanmb87@aol.com)

Tuning 1/2 Step Down, Drop D

MAIN RIFF:
|------------------------------------------|
|------------------------------------------|
|------------------------------------------|
|-0-15-14-0-15-14-0-15-14-0-15-14-0-151515-|
|-0-15-14-0-15-14-0-15-14-0-15-14-0-151515-|
|-0-15-14-0-15-14-0-15-14-0-15-14-0-151515-|

VERSE
|---------------------------|
|---------------------------|
|---------------------------|
|-0-0-0--0-1-0--0-1-0-3-3-3-|
|-0-0-0--0-1-0--0-1-0-3-3-3-|
|-0-0-0--0-1-0--0-1-0-3-3-3-|
PM. .

CHORUS:
|-------------------------------------------|
|-------------------------------------------|
|-----------------------------------------7-|
|---1---1---1---1---1-2-1---1---1---1---1-7-|
|-2---3---0---2---3-------2---3---0---2---5-|
|-------------------------------------------|
[ Tab from: http://www.guitartabs.cc/tabs/n/nothingface/breathe_out_tab.html ]
CHORUS 2:
|--------------------------------------------------|
|--------------------------------------------------|
|--------------------------------------------------|
|---1---1---1----1---1---1---1---1---1---3-4-3-4-3-|
|-2---3------------0-------2---3-------4-----------|
|---------0---/6-------3-----------0---------------|

CHORUS 3:
|-----------------------------|
|-----------------------------|
|-----------------------------|
|---------13-14-10------------|
|-9-11-12-11-12--8-9-11-12-11-|
|-9-11-12----------9-11-12-11-|

INTERLUDE:
|---------------------------------------------------------------------|
|---------------------------------------------------------------------|
|---------------------------------------------------10-10-11-11-11-11-|
|-9-9-9-9-10-9-9-9--9-9-9-10-9-9-9--9-9-9-10-9-9-9---X--X--X--X--X--X-|
|-9-9-9-9-10-9-9-9--9-9-9-10-9-9-9--9-9-9-10-9-9-9---8--8--9--9--9--9-|
|-9-9-9-9-10-9-9-9--9-9-9-10-9-9-9--9-9-9-10-9-9-9--------------------|

INTERLUDE 2:
|------------------------------------------|
|------------------------------------------|
|------------------------------------------|
|-9999101010101313131399991010101013131313-|
|-9999101010101313131399991010101013131313-|
|-9999101010101313131399991010101013131313-|

Comments