Nothingface - Bleeder Chords & Tabs

 

Bleeder Chords & Tabs

Nothingface Chords & Tabs

Version: 1 Type: Tab 0 ratings
1 star 2 stars 3 stars 4 stars 5 stars
comments

Bleeder Tab

Song: "Bleeder"
Artist: Nothingface
Album: Violence
Transcribed By: Bryan Bramlett (bryanmb87@aol.com)

Tune 1/2 Step Down, Drop D

RIFF 1:
|----------------------------------------------------------------------|
|----------------------------------------------------------------------|
|------77-----7---7------55-----5---5------88-----8---8------555555558-|
|------77-----7---7------55-----5---5------88-----8---8------555555558-|
|------55-----5---5------33-----3---3------66-----6---6------333333336-|
|-0000----000---0---0000----000---0---0000----000---0---0000-----------|

FILL 1:
|-----------|
|-----------|
|--5--8--7--|
|--5--8--7--|
|--3--6--5--|
|-----------|

RIFF 2:
|---------------------------------|
|---------------------------------|
|-------------5------------5-8-7--|
|--0000-00000-5-0000-00000-5-8-7--|
|--0000-00000-3-0000-00000-3-6-5--|
|--0000-00000---0000-00000--------|

VERSE:
|---------------------------------|
|---------------------------------|
|-------------5------------5-8-7--|
|-------------5------------5-8-7--|
|--0000-00000-3-0000-00000-3-6-5--|
|--0000-00000---0000-00000--------|
PM .... .....   .... .....

FILL 2:
|-----------------|
|----------15-----|
|-------------13--|
|----10-12--------|
|--0--------------|
|--0--------------|
[ Tab from: http://www.guitartabs.cc/tabs/n/nothingface/bleeder_tab.html ]
CHORUS:
|-----------------------------------------------------------------|
|-----------------------------------------------------------------|
|-----77---7-7------------------------------------------77---7-7--|
|-----77---7-7-7-7-7-7-7-77/8-8-8-8-8-8/5-5-5-5-5/8-----77---7-7--|
|-----55---5-5-7-7-7-7-7-77/8-8-8-8-8-8/5-5-5-5-5/8-----55---5-5--|
|-0000--000-0--7-7-7-7-7-77/8-8-8-8-8-8/5-5-5-5-5/8-0000--000-0---|

|----------------------------------------------------------|
|----------------------------------------------------------|
|----------------------------------------------------------|
|-6-6-6-6-6/8-8/5-5-5-5-5-5--------------------------------|
|-6-6-6-6-6/8-8/5-5-5-5-5-5-333666555333-6-5-3-------------|
|-6-6-6-6-6/8-8/5-5-5-5-5-5-333666555333-6-5-3-------------|
PM                                       . . .

FILL 3:
|--------------|
|--------------|
|--------------|
|--0000---000--|
|--0000---000--|
|--0000---000--|

INTERLUDE 1:            INTERLUDE 2:            INTERLUDE 3:
|---------------------| |---------------------| |---------------------|
|---------------------| |---------------------| |---------------------|
|---------------------| |---------------------| |---------------------|
|--3/2-0-3/2-0-3/2-0--| |--3/2-0-3/2-0-3/2-0--| |--3-2-0-3-2-0-3-2-0--|
|--3/2-0-3/2-0-3/2-0--| |--3/2-0-3/2-0-3/2-0--| |--3-2-0-3-2-0-3-2-0--|
|--3/2-0-3/2-0-3/2-0--| |--3/2-0-3/2-0-3/2-0--| |--3-2-0-3-2-0-3-2-0--|
PM                             .     .     .       . . . . . . . . .

FILL 4: (play in between different interludes)
|----------------|
|----------------|
|----------------|
|----------------|
|--6p5-----------|
|------00-6p5\3--|
PM     ..


Comments