Nothingface - American Love Chords & Tabs

 

American Love Chords & Tabs

Nothingface Chords & Tabs

Version: 1 Type: Tab 0 ratings
1 star 2 stars 3 stars 4 stars 5 stars
comments

American Love Tab

   
Song: "American Love"
Artist: Nothingface
Album: Violence
Transcribed By: Bryan Bramlett (bryanmb87@aol.com)

Tuning: 1/2 Step Down, Drop D

VERSE:
|-------------------------------------|
|-------------------------------------|
|-------------------------------------|
|-------------------------------------|
|-------------------------------------|
|--5757-58757-8787-5757-58757-7-8-10--|

BRIDGE:
|--------------------------------------------------|
|--------------------------------------------------|
|--------------------------------------------------|
|--------------------------------------------------|
|-0h2-0-0h2-0-0h2-0-0h2-0-0h3-0-0h3-0-0h3-0-0h3-0--|
|-0h2-0-0h2-0-0h2-0-0h2-0-0h3-0-0h3-0-0h3-0-0h3-0--|
PM    .     .     .     .     .     .     .     .

|----------------------------------------|
|----------------------------------------|
|----------------------------------------|
|--------------------------10-10--6-6-6--|
|-0h2-0-0h2-0-0h2-0-0h2-0--10-10--6-6-6--|
|-0h2-0-0h2-0-0h2-0-0h2-0--10-10--6-6-6--|
PM    .     .     .     .

CHORUS:
|--------------------------------------------------------------------|
|--------------------------------------------------------------------|
|--------------------------------------------------------------------|
|--2222222233333333444444440000000022222222333333334444444400000000--|
|--2222222233333333444444440000000022222222333333334444444400000000--|
|--2222222233333333444444440000000022222222333333334444444400000000--|
[ Tab from: http://www.guitartabs.cc/tabs/n/nothingface/american_love_tab.html ]
|--------------------------------|
|----5---6---7---3---5---6----3--|
|----4---5---6---2---4---5----2--|
|--------------------------44-0--|
|--2---3---4---0---2---3---44-0--|
|--2---3---4---0---2---3---44-0--|

INTERLUDE: (clean)
|----------------------------------------------------|
|----------------------------------------------------|
|--------------5p4p0-----0---------------------------|
|---2---5--2-3---------3---0---2---5--2---0---0---0--|
|------------X--------------------------2---1---0----|
|-2---0---0--3-------3-------2---0---0---------------|


INTERLUDE B: (guitar 1)
|-----------------------------------------------------|
|-----------------------------------------------------|
|----------4-----5p4p0---------------4----------------|
|----2-5-2---5---------4-5-0---2-5-2---5---0---0---0--|
|----------------------------------------2---1---0----|
|--2-------------------------2------------------------|

INTERLUDE B: (guitar 2)
|-----------------------|
|--5-5-5-5-5-5-5-5-5-5--|
|--4-4-4-4-4-4-4-4-4-4--|
|--2-2-2-2-2-2-2-2-2-2--|
|--2-2-2-2-2-2-2-2-2-2--|
|--2-2-2-2-2-2-2-2-2-2--|

INTERLUDE C: (distortion)
|------------------|
|------------------|
|------------------|
|--5-5-5-4-4-4-33--|
|--5-5-5-4-4-4-33--|
|--5-5-5-4-4-4-33--|

VERSE B:
|-------------------------------------|
|-------------------------------------|
|-------------------------------------|
|-------------------------------------|
|-------------------------------------|
|--0202-03202-03232-0202-03202-2-3-5--|


Comments