Nothing Yet - Punk Song Chords & Tabs

 

Punk Song Chords & Tabs

Nothing Yet Chords & Tabs

Version: 1 Type: Tab 0 ratings
1 star 2 stars 3 stars 4 stars 5 stars
comments

Punk Song Tab

INTRO
Guitar 2
|----------------------------------|----------------------------------|
|--14-14-12-12-11~-11-11-9-9h11—7~-|--14-14-12-12-11~-11-11-9-9--11~--|
|-0--0--0--0--0---0--0--0-0----0---|-0--0--0--0--0---0--0--0-0--0-----|
|----------------------------------|----------------------------------|
|----------------------------------|----------------------------------|
|----------------------------------|----------------------------------|

Guitar 2
|----------------------------------|----------------------------------|
|--14-14-12-12-11~-11-11-9-9--11~--|--14-14-12-12-11~-11-11-9-9h11-7~-|
|-0--0--0--0--0---0--0--0-0--0--0--|-0--0--0--0--0---0--0--0-0----0---|
|----------------------------------|----------------------------------|
|----------------------------------|----------------------------------|
|----------------------------------|----------------------------------|

Guitar 1
|----------------------------------|----------------------------------|
|----------------------------------|----------------------------------|
|----------------------------------|-----------------7----------------|
|----------------------------------|-----------------7----------------|
|----------------------------------|-----------------5----------------|
|----------------------------------|----------------------------------|

Guitar 2
|----------------------------------|----------------------------------|
|----------------------------------|----------------------------------|
|----------------------------------|-7(h)-----------------------------|
|---------------7(h)---------------|---------------12(h)--------------|
|----------------------------------|----------------------------------|
|----------------------------------|----------------------------------|

PRE VERSE
Guitar 1
|----------------------------------|----------------------------------|
|----------------------------------|----------------------------------|
|----------------------------------|----------------------------------|
|-7-7-7-7---------4-4-4-4----------|-7-7-7-7---------4-4-4-4----------|
|-5-5-5-5-5-5-5-5-2-2-2-2-7-7-7-7--|-5-5-5-5-5-5-5-5-2-2-2-2-7-7-7-7--|
|---------3-3-3-3---------5-5-5-5--|---------3-3-3-3---------5-5-5-5--|

Guitar 2
|-------------------|-------------------------------------------------|
|-------------------|-------------------------------------------------|
|-------------------|11—11h12p11-11-11h12p11-11-11h12p11-11-11h12p11--|
|-------------------|-12-------12--12------12--12------12--12------12-|
|-------------------|-------------------------------------------------|
|-------------------|-------------------------------------------------|






VERSE
Guitar 1
|----------------------------------|----------------------------------|
|----------------------------------|----------------------------------|
|----------------------------------|----------------------------------|
|-7-7-7-7---------4-4-4-4----------|-7-7-7-7---------4-4-4-4----------|
|-5-5-5-5-5-5-5-5-2-2-2-2-7-7-7-7--|-5-5-5-5-5-5-5-5-2-2-2-2-7-7-7-7--|
|---------3-3-3-3---------5-5-5-5--|---------3-3-3-3---------5-5-5-5--|

Guitar 2
|----------------------------------|----------------------------------|
|----------------------------------|----------------------------------|
|-11--11--7-7-7-7-11--11--9-9-9-9--|-11--11--9-9-9-9-14--14--14--14---|
|----------------------------------|----------------------------------|
|-9-9-9-9-5-5-5-5-9-9-9-9-7-7-7-7--|-9-9-9-9-7-7-7-7-12--12--12--12---|
|----------------------------------|----------------------------------|

Guitar 1
|----------------------------------|----------------------------------|
|----------------------------------|----------------------------------|
|----------------------------------|----------------------------------|
|-7-7-7-7---------4-4-4-4----------|-7-7-7-7---------4-4-4-4----------|
|-5-5-5-5-5-5-5-5-2-2-2-2-7-7-7-7--|-5-5-5-5-5-5-5-5-2-2-2-2-7-7-7-7--|
|---------3-3-3-3---------5-5-5-5--|---------3-3-3-3---------5-5-5-5--|

Guitar 2
|----------------------------------|----------------------------------|
|----------------------------------|----------------------------------|
|-11--11--7-7-7-7-11--11--9-9-9-9--|-11--11--9-9-9-9-14--14--14--14---|
|----------------------------------|----------------------------------|
|-9-9-9-9-5-5-5-5-9-9-9-9-7-7-7-7--|-9-9-9-9-7-7-7-7-12--12--12--12---|
|----------------------------------|----------------------------------|

PRE CHORUS
Guitar 1
|----------------------------------|----------------------------------|
|----------------------------------|----------------------------------|
|----------------------------------|----------------------------------|
|---------7-7-7-7-4-4-4-4----------|---------7-7-7-7-4-4-4-4----------|
|-5-5-5-5-----------------7-7-7-7--|-5-5-5-5-----------------7-7-7-7--|
|----------------------------------|----------------------------------|


Guitar 2
|----------------------------------|----------------------------------|
|------------PALM MUTING-----------|------------PALM MUTING-----------|
|----------------------------------|----------------------------------|
|---------7-7-7-7-4-4-4-4----------|---------7-7-7-7-4-4-4-4----------|
|-5-5-5-5-5-5-5-5-2-2-2-2-7-7-7-7--|-5-5-5-5-5-5-5-5-2-2-2-2-7-7-7-7--|
|-3-3-3-3-----------------5-5-5-5--|-3-3-3-3-----------------5-5-5-5--|






Guitar 1
|----------------------------------|----------------------------------|
|----------------------------------|----------------------------------|
|----------------------------------|----------------------------------|
|---------7-7-7-7-4-4-4-4----------|---------7-7-7-7-4-4-4-4----------|
|-5-5-5-5-----------------7-7-7-7--|-5-5-5-5-----------------7-7-7-7--|
|----------------------------------|----------------------------------|

Guitar 2
|----------------------------------|----------------------------------|
|------------PALM MUTING-----------|------------PALM MUTING-----------|
|----------------------------------|----------------------------------|
|---------7-7-7-7-4-4-4-4----------|---------7-7-7-7-4-4-4-4----------|
|-5-5-5-5-5-5-5-5-2-2-2-2-7-7-7-7--|-5-5-5-5-5-5-5-5-2-2-2-2-7-7-7-7--|
|-3-3-3-3-----------------5-5-5-5--|-3-3-3-3-----------------5-5-5-5--|

CHORUS
Guitar 1
|----------------------------------|----------------------------------|
|----------------------------------|----------------------------------|
|----------------------------------|----------------------------------|
|-----------------7-7-7-7-7-7-7-7--|-4-4-4-4-4-4-4-4------------------|
|-5-5-5-5-5-5-5-5-5-5-5-5-5-5-5-5--|-2-2-2-2-2-2-2-2-7-7-7-7-7-7-7-7--|
|-3-3-3-3-3-3-3-3------------------|-----------------5-5-5-5-5-5-5-5--|

Guitar 2
|----------------------------------|----------------------------------|
|----------------------------------|----------------------------------|
|-11--11s9s7-7-7s9s11--11--11--11--|-12--12--11--11--9---9---14--14---|
|----------------------------------|---12--12--12--12--12--12--12--12-|
|--9-9-9s7s5-5-5s7s9---9---9---9---|----------------------------------|
|----------------------------------|----------------------------------|

Guitar 1
|----------------------------------|----------------------------------|
|----------------------------------|----------------------------------|
|----------------------------------|----------------------------------|
|-----------------7-7-7-7-7-7-7-7--|-4-4-4-4-4-4-4-4------------------|
|-5-5-5-5-5-5-5-5-5-5-5-5-5-5-5-5--|-2-2-2-2-2-2-2-2-7-7-7-7-7-7-7-7--|
|-3-3-3-3-3-3-3-3------------------|-----------------5-5-5-5-5-5-5-5--|

Guitar 2
|----------------------------------|----------------------------------|
|----------------------------------|----------------------------------|
|-11--11s9s7-7-7s9s11--11--11--11--|-12--12--11--11--9---9---14--14---|
|----------------------------------|---12--12--12--12--12--12--12--12-|
|--9-9-9s7s5-5-5s7s9---9---9---9---|----------------------------------|
|----------------------------------|----------------------------------|






[ Tab from: http://www.guitartabs.cc/tabs/n/nothing_yet/punk_song_tab.html ]
BRIDGE
Guitar 1
|----------------------------------|----------------------------------|
|----------------------------------|----------------------------------|
|----------------------------------|-12(h)----------------------------|
|----------------7(h)--------------|-----------------7----------------|
|----------------------------------|-----------------5----------------|
|-7(h)-----------------------------|----------------------------------|

Guitar 1
|----------------------------------|----------------------------------|
|----------------------------------|----------------------------------|
|----------------------------------|----------------------------------|
|----------------------------------|-----------------7-7-7-7-7-7-7-7--|
|-9-9-9-9-9-9-9-9-7-7-7-7-7-7-7-7--|-5-5-5-5-5-5-5-5-5-5-5-5-5-5-5-5--|
|-7-7-7-7-7-7-7-7-5-5-5-5-5-5-5-5--|-3-3-3-3-3-3-3-3------------------|

Guitar 1
|----------------------------------|----------------------------------|
|----------------------------------|----------------------------------|
|----------------------------------|----------------------------------|
|----------------------------------|-----------------7-7-7-7-7-7-7-7--|
|-9-9-9-9-9-9-9-9-7-7-7-7-7-7-7-7--|-5-5-5-5-5-5-5-5-5-5-5-5-5-5-5-5--|
|-7-7-7-7-7-7-7-7-5-5-5-5-5-5-5-5--|-3-3-3-3-3-3-3-3------------------|

Guitar 2
|----------------------------------|----------------------------------|
|----------------------------------|----------------------------------|
|-11--------------9----------------|-7--------------11----------------|
|----------------------------------|----------------------------------|
|-9---------------7----------------|-5---------------9----------------|
|----------------------------------|----------------------------------|

Guitar 1
|----------------------------------|----------------------------------|
|----------------------------------|----------------------------------|
|----------------------------------|----------------------------------|
|----------------------------------|-----------------7-7-7-7-7-7-7-7--|
|-9-9-9-9-9-9-9-9-7-7-7-7-7-7-7-7--|-5-5-5-5-5-5-5-5-5-5-5-5-5-5-5-5--|
|-7-7-7-7-7-7-7-7-5-5-5-5-5-5-5-5--|-3-3-3-3-3-3-3-3------------------|

Guitar 2
|----------------------------------|----------------------------------|
|----------------------------------|----------------------------------|
|-11--------------9----------------|-7--------------11----------------|
|----------------------------------|----------------------------------|
|-9---------------7----------------|-5---------------9----------------|
|----------------------------------|----------------------------------|

Guitar 1
|----------------------------------|----------------------------------|
|------------------REPEAT THIS FOUR TIMES-DURING SOLO-----------------|
|----------------------------------|----------------------------------|
|----------------------------------|-----------------7-7-7-7-7-7-7-7--|
|-9-9-9-9-9-9-9-9-7-7-7-7-7-7-7-7--|-5-5-5-5-5-5-5-5-5-5-5-5-5-5-5-5--|
|-7-7-7-7-7-7-7-7-5-5-5-5-5-5-5-5--|-3-3-3-3-3-3-3-3------------------|

Guitar 2: Solo
|--------------------------19p17-17------------------------|
|-12----12----12----12---------19-19-17-19p17-17-----------|
|-14^16-14^16-14^16-14^16-------------------19-19-16-19p16~|
|----------------------------------------------------------|
|----------------------------------------------------------|
|----------------------------------------------------------|

|---------------------------------------------------------------------|
|---------------------------------------------------------------------|
|-16p14-14------------------------------------------------------------|
|-----16-16-14-16p14-14-----------------------------------------------|
|------------------17-17-14-17-14~-14p12-12---------------------------|
|--------------------------------------14-14-12-14-12-10-12-10-7-10-7~|

|----------------------------------|
|----------------------------------|
|----------------------------2-2-4~|
|---------------2-2-4---4-2-4-4----|
|------2-2-5-2-5-5-----------------|
|-5-2-5-5--------------------------|

|---------------------------14-14-17-14-17-17s19~-|
|----------------------15-15-15-------------------|
|-----------------16-16-16------------------------|
|------------16-16-16-----------------------------|
|-14s17-14-17-17----------------------------------|
|-------------------------------------------------|

|--------------------------------------------------------------------------|
|-12----12----12---15p12-15p12-15p12---14----14----14---17p14-17p14-17p14--|
|-14^16-14^16-14^16----14----14----14--16^18-16^18-16^18----16----16----16-|
|--------------------------------------------------------------------------|
|--------------------------------------------------------------------------|
|--------------------------------------------------------------------------|

|-14----14----14---17p14-17p14-17p14---17----17----17---15-14-17-17s19--|
|-17^19-17^19-17^19----15----15----15--20^22-20^22-20^22----------------|
|-----------------------------------------------------------------------|
|-----------------------------------------------------------------------|
|-----------------------------------------------------------------------|
|-----------------------------------------------------------------------|

|-19~-14-14h17p14-12~-12-12h14p12----10-12s15-14-12-14-12--12----------|
|--------------------------------12~---------------------15--15-14-15~-|
|----------------------------------------------------------------------|
|----------------------------------------------------------------------|
|----------------------------------------------------------------------|
|----------------------------------------------------------------------|







ENDING CHORUS
Guitar 1
|----------------------------------|----------------------------------|
|----------------------------------|----------------------------------|
|----------------------------------|----------------------------------|
|----------------------------------|-----------------7-7-7-7-7-7-7-7--|
|-9-9-9-9-9-9-9-9-7-7-7-7-7-7-7-7--|-5-5-5-5-5-5-5-5-5-5-5-5-5-5-5-5--|
|-7-7-7-7-7-7-7-7-5-5-5-5-5-5-5-5--|-3-3-3-3-3-3-3-3------------------|

Guitar 2
|-9-9h10~--12-9h10~--9-12p9h10~--10-12s15-14-12-14-12~---|
|--------------------------------------------------------|
|--------------------------------------------------------|
|--------------------------------------------------------|
|--------------------------------------------------------|
|--------------------------------------------------------|

Guitar 1
|----------------------------------|----------------------------------|
|----------------------------------|----------------------------------|
|----------------------------------|----------------------------------|
|----------------------------------|-----------------7-7-7-7-7-7-7-7--|
|-9-9-9-9-9-9-9-9-7-7-7-7-7-7-7-7--|-5-5-5-5-5-5-5-5-5-5-5-5-5-5-5-5--|
|-7-7-7-7-7-7-7-7-5-5-5-5-5-5-5-5--|-3-3-3-3-3-3-3-3------------------|

Guitar 2
|-----------------------------------------------------------|
|-14-14h15~--14-14h15~--14-14h15~--14-12-11-12-11-9-11-9-7~-|
|-----------------------------------0--0--0--0--0-0--0-0-0--|
|-----------------------------------------------------------|
|-----------------------------------------------------------|
|-----------------------------------------------------------|

OUTRO
Guitar 2
|----------------------------------|----------------------------------|
|--14-14-12-12-11~-11-11-9-9h11—7~-|--14-14-12-12-11~-11-11-9-9--11~--|
|-0--0--0--0--0---0--0--0-0----0---|-0--0--0--0--0---0--0--0-0--0-----|
|----------------------------------|----------------------------------|
|----------------------------------|----------------------------------|
|----------------------------------|----------------------------------|

Guitar 2
|----------------------------------|----------------------------------|
|--14-14-12-12-11~-11-11-9-9--11~--|--14-14-12-12-11~-11-11-9-9h11-7~-|
|-0--0--0--0--0---0--0--0-0--0--0--|-0--0--0--0--0---0--0--0-0----0---|
|----------------------------------|----------------------------------|
|----------------------------------|----------------------------------|
|----------------------------------|----------------------------------|
Comments