Nothing To Lose - Smiles And Cries Chords & Tabs

 

Smiles And Cries Chords & Tabs

Nothing To Lose Chords & Tabs

Version: 1 Type: Tab 0 ratings
1 star 2 stars 3 stars 4 stars 5 stars
comments

Smiles And Cries Tab

-------------------------------------------------------------------------------
SMILES & CRIES - Nothing to Lose
-------------------------------------------------------------------------------

Tabbed by: Jeremy Meyer meyer83@yahoo.com

Intro:
e|---------------------------------------------------------------------------|
B|------10---9-------10---9-------10---9-------------------------------------|
G|----9----9-------9----9-------9----9---------------------------------------|
D|--7------------7------------7----------------------------------------------|
A|---------------------------------------------------------------------------|
E|---------------------------------------------------------------------------|
 
Play 2X
e|---------------------------------------------------------------------------|
B|---------------------------------------------------------------------------|
G|--6--669--997--776--664--446-664--44-4222----------------------------------|
D|--x--xxx--xxx--xxx--xxx--xxx-xxx--xx-xxxx----------------------------------|
A|--4--447--775--554--442--224-442--22-2000----------------------------------|
E|---------------------------------------------------------------------------|


Play 4X
e|---------------------------------------------------------------------------|
B|---------------------------------------------------------------------------|
G|--6--666666666---6-664--446-662--------------------------------------------|
D|--6--666666666---6-664--446-662--------------------------------------------|
A|--4--444444444---4-442--224-440--------------------------------------------|
E|---------------------------------------------------------------------------|
pm-----XXXXXXXXX


Play this part throughout the entire song:
e|---------------------------------------------------------------------------|
B|---------------------------------------------------------------------------|
G|---6--667--6--667--6--667--------------------------------------------------|
D|---x--xxx--x--xxx--x--xxx--------------------------------------------------|
A|---4--445--4--445--4--445--------------------------------------------------|
E|---------------------------------------------------------------------------|

[ Tab from: http://www.guitartabs.cc/tabs/n/nothing_to_lose/smiles_and_cries_tab.html ]
e|---------------------------------------------------------------------------|
B|---------------------------------------------------------------------------|
G|--6--667--6--667--6--667--6--xx--------------------------------------------|
D|--x--xxx--x--xxx--x--xxx--x--xx--------------------------------------------|
A|--4--445--4--445--4--445--4--xx--------------------------------------------|
E|---------------------------------------------------------------------------|

Palm muted:
e|---------------------------------------------------------------------------|
B|----3-5-3----3-5-3----3-5-3----3-5-3---------------------------------------|
G|--2--------2--------2--------2---------------------------------------------|
D|---------------------------------------------------------------------------|
A|---------------------------------------------------------------------------|
E|---------------------------------------------------------------------------|


e|---------------------------------------------------------------------------|
B|---------------------------------------------------------------------------|
G|--2-22-4--446-667-776--664444444---2-22-4-446-667-776-44-22222222----------|
D|--x-xx-x--xxx-xxx-xxx--xxxxxxxxx---x-xx-x-xxx-xxx-xxx-xx-xxxxxxxx----------|
A|--0-00-2--224-445-554--442222222---0-00-2-224-445-554-22-00000000----------|
E|---------------------------------------------------------------------------|
I'm searching of all I can see...

Ending:
Guitar 1:
e|---------------------------------------------------------------------------|
B|------10---9-------10---9-------10---9-------------------------------------|
G|----9----9-------9----9-------9----9---------------------------------------|
D|--7------------7------------7----------------------------------------------|
A|---------------------------------------------------------------------------|
E|---------------------------------------------------------------------------|

Guitar 2:
Palm muted:
e|-------------------------------------9-------------------------------------|
B|---------------------------------------------------------------------------|
G|----------99-99--11-11--77-77-----------99-99--11-11--77-77----------------|
D|---77-77--99-99--11-11--77-77--77-77----99-99--11-11--77-77----------------|
A|---77-77--77-77--99-99--55-55--77-77----77-77--99-99--55-55----------------|
E|---55-55-----------------------55-55---------------------------------------|


Please email comments to meyer83@yahoo.com

-------------------------------------------------------------------------------
Comments