Nothing To Lose - Candice Brown Song Chords & Tabs

 

Candice Brown Song Chords & Tabs

Nothing To Lose Chords & Tabs

Version: 1 Type: Tab 0 ratings
1 star 2 stars 3 stars 4 stars 5 stars
comments

Candice Brown Song Tab

-------------------------------------------------------------------------------
CANDICE BROWN SONG - Nothing to Lose
-------------------------------------------------------------------------------

Tabbed by: Jeremy Meyer meyer83@yahoo.com

Intro:
e|---------------------------------------------------------------------------|
B|---------------------------------------------------------------------------|
G|-------4-----------4----------4----------4-4h5p4---------------------------|
D|-----5---5-------5---5------5---5------5-----------------------------------|
A|---3-------3---3-------3--3-------3--3-------------------------------------|
E|---------------------------------------------------------------------------|


e|---------------------------------------------------------------------------|
B|---------------------------------------------------------------------------|
G|--5-----------------555555------------777777---999999----------------------|
D|--5-----------------555555---555555---777777---999999----------------------|
A|--3-----------------333333---555555---555555---777777----------------------|
E|-----------------------------333333----------------------------------------|
___Until I find.......key.....


e|---------------------------------------------------------------------------|
B|---------------------------------------------------------------------------|
G|---555555-----------7-777777777777-----------------------------------------|
D|---555555--555555---7-777777777777-----------------------------------------|
A|---333333--555555---5-555555555555-----------------------------------------|
E|-----------333333----------------------------------------------------------|
pm______________________xxxxxxxxxxxx
  And if hope......

[ Tab from: http://www.guitartabs.cc/tabs/n/nothing_to_lose/candice_brown_song_tab.html ]
Main Part:
e|---------------------------------------------------------------------------|
B|---------------------------------------------------------------------------|
G|--555555----------777777--999999-------------------------------------------|
D|--555555--555555--777777--999999-------------------------------------------|
A|--333333--555555--555555--777777-------------------------------------------|
E|----------333333-----------------------------------------------------------|
   Why, do we always....


e|---------------------------------------------------------------------------|
B|---------------------------------------------------------------------------|
G|--999999--777777--555555555------------------------------------------------|
D|--999999--777777--555555555------------------------------------------------|
A|--777777--555555--333333333------------------------------------------------|
E|---------------------------------------------------------------------------|
I've waited for someone....


e|---------------------------------------------------------------------------|
B|---------------------------------------------------------------------------|
G|---55---99---77---77-------------------------------------------------------|
D|---55---99---77---55-------------------------------------------------------|
A|---33---77---55---33-------------------------------------------------------|
E|---------------------------------------------------------------------------|
Palm Muted
You know my name...

__[2:16]
e|---------------------------------------------------------------------------|
B|---------------------------------------------------------------------------|
G|-----5-7-5----5-7-5----5-7-5-----------------------------------------------|
D|---5--------5--------5-----------------------------------------------------|
A|---------------------------------------------------------------------------|
E|---------------------------------------------------------------------------|

Ending:
e|---------------------------------------------------------------------------|
B|---------------------------------------------------------------------------|
G|---99999---77777---5-------------------------------------------------------|
D|---99999---77777---5-------------------------------------------------------|
A|---77777---55555---3-------------------------------------------------------|
E|---------------------------------------------------------------------------|


Please email comments to meyer83@yahoo.com
Comments