Not Katies - 2 Halves Of Chords & Tabs

 

2 Halves Of Chords & Tabs

Not Katies Chords & Tabs

Version: 1 Type: Tab 0 ratings
1 star 2 stars 3 stars 4 stars 5 stars
comments

2 Halves Of Tab

Not Katies
2 Halves Of 2
Tabbed By Monkey Guy
monkey_guy50@hotmail.com

This is probably better known as the Trouble Cruel Summer 2 Theme.

    Intro x2                                                            
E------------------------------------------------------------------|----
B------------------------------------------------------------------|----
G---x--x-----5--7--5--7--12--10--12--10--10--9--7--9--7--5--12--5--|----
D---x--x-----x--x--x--x--x---x---x---x---x---x--x--x--x--x--x---x--|----
A---x--x-----3--5--3--5--10--8---10--8---8---7--5--7--5--3--10--3--|----
E------------------------------------------------------------------|----
                                                                        

    Intro (Rhythm Guitar) x2                                            
E---------------------------------------------------|-------------------
B---------------------------------------------------|-------------------
G---5--5--5--5--------------------------------------|-------------------
D---5--5--5--5--5--5--5--5--7--7--7--7--3--3--3--3--|-------------------
A---3--3--3--3--5--5--5--5--7--7--7--7--3--3--3--3--|-------------------
E---------------3--3--3--3--5--5--5--5--1--1--1--1--|-------------------
                                                                        
[ Tab from: http://www.guitartabs.cc/tabs/n/not_katies/2_halves_of_tab.html ]
    Verse x4                                                            
E---------------------------------------------------|-------------------
B---------------------------------------------------|-------------------
G---5--5--5--5--------------------------------------|-------------------
D---5--5--5--5--3--3--3--3--7--7--7--7--5--5--5--5--|-------------------
A---3--3--3--3--3--3--3--3--7--7--7--7--5--5--5--5--|-------------------
E---------------1--1--1--1--5--5--5--5--3--3--3--3--|-------------------
                                                                        

    Verse 3 x4                                                          
E------------------------------------|----------------------------------
B------------------------------------|----------------------------------
G---4--5-----4--5-----4--5-----4--5--|----------------------------------
D------------------------------------|----------------------------------
A------------------------------------|----------------------------------
E------------------------------------|----------------------------------
                                                                        

    Verse 3 (Rhythm Guitar) x4                      Outro Note          
E------------------------------------------------|--8~~~----------------
B------------------------------------------------|----------------------
G---5--x--5--------------------------------------|----------------------
D---5--x--5-----3--x--3-----7--x--7-----5--x--5--|----------------------
A---3--x--3-----3--x--3-----7--x--7-----5--x--5--|----------------------
E---------------1--x--1-----5--x--5-----3--x--3--|----------------------
                                                                        

Comments