Not By Choice - Standing All Alone Chords & Tabs

 

Standing All Alone Chords & Tabs

Not By Choice Chords & Tabs

Version: 4 Type: Tab 0 ratings
1 star 2 stars 3 stars 4 stars 5 stars
comments

Standing All Alone Tab

Standing All Alone

* Let It Ring

Order
Pre Pre Chourus
Intro
Pre Pre Chourus
Pre Chorus
Chourus x2
Intro
Pre Pre Chorus
Pre Chourus
Chourus x2
Thing After That Stuff
You Try to Change The World
Intro
Other Part
I Dunno
Chourus

Intro

e----------------------------------------------------------------------------
b----------------------------------------------------------------------------
g-4444--------------------4444-----------------------------------------------
d-4444--222222-66--46686--4444--222222--444-444-444-66-----------------------
a-2222--222222-66--26686--2222--222222--444-444-444-66-----------------------
e-------000000-44--24464--------000000--222-222-222-44-----------------------

Pre Pre "Chourus"

e----------------------------------------------------------------------------
b----------------------------------------------------------------------------
g----------------------------------------------------------------------------
d--------------------------------------------4-------------------------------
a-2222----------------------2222-------------4-------------------------------
e-------00000-44444--22222-------00000-4444--2-------------------------------

Pre Chourus

e----------------------------------------------------------------------------
b----------------------------------------------------------------------------
g-444------------------------444---------------------------------------------
d-444---22222---6666--44444--222--2222222--666---4---------------------------
a-222---22222---6666--44444--222--2222222--666---4---------------------------
e-------00000---4444--22222-------0000000--444---2---------------------------



Chourus

e----------------------------------------------------------------------------
b----------------------------------------------------------------------------
g-444------------------------------------------------------------------------
d-444-22222-6666-44444-------------------------------------------------------
a-222-22222-6666-44444-------------------------------------------------------
e-----00000-4444-22222-------------------------------------------------------

Thing After That Stuff
[ Tab from: http://www.guitartabs.cc/tabs/n/not_by_choice/standing_all_alone_tab_ver_4.html ]
e----------------------------------------------------------------------------
b----------------------------------------------------------------------------
g----------------------------------------------------------------------------
d-222222222222222--44444444444444--22222222222222--44--44--44--44------------
a-222222222222222--22222222222222--22222222222222--44--44--44--44------------
e-000000000000000--22222222222222--00000000000000--22--22--22--22------------

"You Try To Change The World"

e----------------------------------------------------------------------------
b----------------------------------------------------------------------------
g-444444444444-----------------------------------444444444444----------------
d-444444444444-222222222222--44444444--22222222--444444444444--222222222222--
a-222222222222-222222222222--44444444--22222222--222222222222--222222222222--
e--------------000000000000--22222222--00000000----------------000000000000--

e----------------------------------------------------------------------------
b----------------------------------------------------------------------------
g----------------------------------------------------------------------------
d-4**--2**-------------------------------------------------------------------
a-4**--2**-------------------------------------------------------------------
e-2**--0**-------------------------------------------------------------------

Other Part

e----------------------------------------------------------------------------
b----------------------------------------------------------------------------
g-4444-----------------------------------------------------------------------
d-4444-222222-44-44-44-44----------------------------------------------------
a-2222-222222-44-44-44-44----------------------------------------------------
e------000000-22-22-22-22----------------------------------------------------

I Dunno

e----------------------------------------------------------------------------
b----------------------------------------------------------------------------
g-44-------------44----------------------------------------------------------
d-44-222--66-444-44-222-666-444444-------------------------------------------
a-22-222--66-444-22-222-666-444444-------------------------------------------
e----000--44-222----000-444-222222-------------------------------------------


I Want TO Here What You Guys Think Of This, Not By Choice Kicks Ass!  Any
Comments if you liked it email notbychoicekicks@hotmail.com, (please vote for
me if you like it) thanx
Comments