Not By Choice - Standing All Alone Chords & Tabs

 

Standing All Alone Chords & Tabs

Not By Choice Chords & Tabs

Version: 1 Type: Bass Tab 0 ratings
1 star 2 stars 3 stars 4 stars 5 stars
comments

Standing All Alone Bass Tab

   
Artist: Not By Choice
Album: Maybe One Day
Song: Standing All Alone
Tabbed by: Eric McKay

All the other tabs are wrong because they are not in the right key.
I now have fixed that problem and I hope this tab is 100% correct.
If you have any problems, email me at iam_canadian_ehh@hotmail.com
Please Rate This Tab!!!

Intro
G|------------------------------------------------------------------|
D|------------------------------------------------------------------|
A|-2-22-222----------------------------2-22-222---------------------|
E|----------0-00-000-4-44-444-2-22-222----------0-00-000-4-44-444-2-|

G|-----------------------------------------------------------------------|
D|-----------------------------------------------------------------------|
A|-2-22-222------------------------2-22-222----------------------------2-|
E|----------0-00-000-444-0-22-44-2----------0-00-000-222-222-222-2h444---|

Verse
G|-------------------------------------------------------------------|
D|-------------------------------------------------------------------|
A|-22222222-----------------------------22222222---------------------|
E|----------22222222-44444444-0000-2222----------22222222-44444444-0-|

G|---------------------------------------------------------------------------|
D|---------------------------------------------------------------------------|
A|-22222222-----------------------------22222222-----------------------------|
E|----------22222222-44444444-0000-2222----------22222222-00000000-4444-2222-|

Chorus 1
G|-------------------------------------------------------------------------|
D|-------------------------------------------------------------------------|
A|-2-22-222----------------------------2-22-222----------------------------|
E|----------0-00-000-4-44-444-2-22-222----------0-00-000-4-44-444-2-22-222-|
[ Tab from: http://www.guitartabs.cc/tabs/n/not_by_choice/standing_all_alone_btab.html ]
Chorus 2
G|-----------------------------------------------------------------------|
D|-----------------------------------------------------------------------|
A|-2-22-222------------------------2-22-222----------------------------2-|
E|----------0-00-000-444-0-22-44-2----------0-00-000-222-222-222-2h444---|

Verse

Chorus 1

Bridge
G|---------------------------------------------------------------------|
D|---------------------------------------------------------------------|
A|---------------------------------------------------------------------|
E|-0000000000000000-2222222222222222-0000000000000000-2222222222222222-|

G|---------------------------------------------------------------------|
D|---------------------------------------------------------------------|
A|-----------------------------------2222222222222222------------------|
E|-4444444444444444-0000000000000000------------------2222222222222222-|

G|-----------------------------------------|
D|-----------------------------------------|
A|-----------------------------------2~----|
E|-4444444444444444-0000000000000000----2~-|

Guitar...

G|------------------------------------|
D|------------------------------------|
A|-22222222---------------------------|
E|----------00000000-2222222222222222-|

Outro (Variations of Chorus)
G|---------------------------|
D|---------------------------|
A|-222-----------------------|
E|-----0-00-000-444-2-22-222-|

G|--------------------------------|
D|--------------------------------|
A|-222----------------------------|
E|-----0-00-000-44444444-22222222-|

G|-------------------------------------|
D|-------------------------------------|
A|-22222222----------------------------|
E|----------00000000-44444444-22222222-|

G|-------------------------------------|
D|-------------------------------------|
A|-22222222----------------------------|
E|----------00000000-44444444-22222222-|

G|-----------------------------------------------------------------------|
D|-----------------------------------------------------------------------|
A|-2-22-222------------------------2-22-222------------------------22222-|
E|----------0-00-000-444-0-22-44-2----------0-00-000-444-0-22-44-2-------|
Comments