Nosotros - El Eden Chords & Tabs

 

El Eden Chords & Tabs

Nosotros Chords & Tabs

Version: 1 Type: Tab 0 ratings
1 star 2 stars 3 stars 4 stars 5 stars
comments

El Eden Tab

Nosotros
El Eden

Drop - D

Intro: x2
e--------------------------------------------------------|
B--------------------------------------------------------|
G--------------------------------------------------------|
D--------------------------------------------------------|
A-7h9-9---7-9-7-9-7-9/10---7h9-9---7-9-7-9---0-0-0-3/5-5-|
D-7h9-9---7-9-7-9-7-9/10---7h9-9---7-9-7-9---0-0-0-3/5-5-|
                                          P.M-----------|        

Verse:              x3 o 4
e-------------------------|-------------|
B-------------------------|-------------|
G-------------------------|-------------|
D-------------------------|-------------|
A-7h9-9---7-9-7-9-7-9/10--|-0-0-0-3/5-5-|
D-7h9-9---7-9-7-9-7-9/10--|-0-0-0-3/5-5-|
                          P.M----------|
[ Tab from: http://www.guitartabs.cc/tabs/n/nosotros/el_eden_tab.html ]
Chorus:
e-----------------------------------------------------|
B-----------------------------------------------------|
G-----------------------------------------------------|
D-----------------------------------------------------|
A-7-7-7-7-7--5-5-5-5-5-5--3-3-3-3-3-5-3-5-3-5-3-5-3/7-|
D-7-7-7-7-7--5-5-5-5-5-5--3-3-3-3-3-5-3-5-3-5-3-5-3/7-|

Repeat
Verse
Chorus 
Solo: Not Posted
Chorus

Outro: Guitar 1 plays intr, guitar 2 does this:
e----------------------------------------------------------------------------|
B-12h14-14---12-14-12-14-12-14/15---12h14-14---12-14-12-14-------------------|
G------------------------------------------------------------9-9-9--12/14-14-|
D----------------------------------------------------------------------------|
A----------------------------------------------------------------------------|
D----------------------------------------------------------------------------|
                                                          P.M---------------|


Comments