Northstar - For Anyone But You Chords & Tabs

 

For Anyone But You Chords & Tabs

Northstar Chords & Tabs

Version: 1 Type: Bass Tab 0 ratings
1 star 2 stars 3 stars 4 stars 5 stars
comments

For Anyone But You Bass Tab

this is an old northstar song that you'll have to download but you 
definitely should b/c its a great song and fun as hell to play...

Northstar
For Anyone But You

Intro: (0:04-0:15)
G--------------------676-----------------|
D------------------/7---7----------------|x1
A-/9--777-5-555-/9-------9--777-5-555----|x1
E----------------------------------------|

Verse pt. 1: (0:16-0:31)
G-----676--/976-/976-6---|
D----7---7------------7--|x2
A-/9---------------------|x2
E------------------------|

Verse pt. 2: (0:32-0:47)
G---6--6h7p6-----------------|
D-------------9--7-----------|x4
A-99-99-----77-75-55---------|x4
E----------------------------|

Pre-Chorus: (0:47-0:54)
G-------------------------|
D------------9~---7~------|x1
A-9(x8)10(x8)-------------|x1
E-------------------------|

Chorus: (0:55-1:07)
G----------------------|
D-----555-----9977-----|x4
A-5557---75557---------|x4
E----------------------|

Chorus Ending: (1:07-1:13)
G-----------------|
D-----------------|x1
A-5~------9~------|x1
E-----------------|
[ Tab from: http://www.guitartabs.cc/tabs/n/northstar/for_anyone_but_you_btab.html ]
Verse pt. 2: (1:13-1:43)
G---6--6h7p6-----------------|
D-------------9--7-----------|x8
A-99-99-----77-75-55---------|x8
E----------------------------|

Pre-Chorus: (1:44-1:51)
G-------------------------|
D------------9~---7~------|x1
A-9(x8)10(x8)-------------|x1
E-------------------------|

Chorus: (1:51-2:03)
G----------------------|
D-----555-----9977-----|x4
A-5557---75557---------|x4
E----------------------|

Chorus Break: (2:04-2:06)
G------------|
D------------|
A-5~---------|
E------------|

Chorus: (2:07-2:18)
G----------------------|
D-----555-----9977-----|x4
A-5557---75557---------|x4
E----------------------|

Ending: (2:19)
G-----------|
D-----------|
A-5~--------|
E-----------|

that should be very very close to right but i didnt do much "revising" so to speak b/c
i finished the tab in about an hour... anyways, i hope that's a useful tab and have fun
with it b/c it is a really fun song to play. email me at MEOhanian@comcast.net for
feedback, questions, future tab requests (ill try to do anything northstar if its
wanted), comments, etc.
Comments