Northside - My Rising Star Chords & Tabs

 

My Rising Star Chords & Tabs

Northside Chords & Tabs

Version: 1 Type: Bass Tab 0 ratings
1 star 2 stars 3 stars 4 stars 5 stars
comments

My Rising Star Bass Tab

#----------------------------------PLEASE NOTE---------------------------------#
#This file is the author's own work and represents their interpretation of the #
#song. You may only use this file for private study, scholarship, or research. #
#------------------------------------------------------------------------------#

My Rising Star (Bassline)
As recorded by Northside

Transcribed by Keaten Higham
Intro
G |------------|-----------|---------|-------------|
D |------------|-----------|---------|-------------|
A |-17\5-5-5-|-----------|---------|---------------|
E  |------------|-0-5-5-5-|-0-3-3-3|-0-5-5-5-------|


G |------------|-----------|---------|-------------|----------|
D |------------|-----------|---------|-------------|----------|
A |-17\5-5-5-|-----------|---------|-------------|-7-5-7------|
E  |------------|-0-5-5-5-|-17\ 3-3-3|-0-5-5-5-|--------------|

[ Tab from: http://www.guitartabs.cc/tabs/n/northside/my_rising_star_btab.html ]
       Bridge  X2
G |-----------|-----------|------------|------------|-------|
D |-----------|-----------|------------|------------|-------|
A |-5-5-5-5-5-|-----------|------------|------------|-7-5-7-|
E |-----------|-5-5-5-5-5-|-0-3-3-3-3-3|-0-5-5-5-5-5|-------|


G |-----------|-----------|-----------|-----------|
D |-----------|-----------|-5-5-5-5-5-|-7-7-7-7-7-|
A |-5-5-5-5-5-|-----------|-----------|-----------|
E |-----------|-5-5-5-5-5-|-----------|-----------|

G |-----------|-----------|------------|------------|-------|
D |-----------|-----------|------------|------------|-------|
A |-5-5-5-5-5-|-----------|------------|------------|-7-5-7-|
E |-----------|-5-5-5-5-5-|-0-3-3-3-3-3|-0-5-5-5-5-5|-------|

G |----------|-----------|-----------|-----------|
D |----------|-7-7-7-7-7-|-5-5-5-5-5-|-7-7-7-7-7-|
A |-5-5-5-5-5|-----------|-----------|-----------|
E |----------|-----------|-----------|-----------|

G |-----------|-----------|-----------|-----------|
D |-----------|-----------|-5-5-5-5-5-|-----------|
A |-5-5-5-5-5-|-----------|-----------|-----------|
E |-----------|-5-5-5-5-5-|-----------|-5-5-5-5-5-|
Comments