Norther - Victorious One Chords & Tabs

 

Victorious One Chords & Tabs

Norther Chords & Tabs

Version: 1 Type: Tab 0 ratings
1 star 2 stars 3 stars 4 stars 5 stars
comments

Victorious One Tab

   
#----------------------------------PLEASE NOTE---------------------------------#
#This file is the author's own work and represents their interpretation of the #
#song. You may only use this file for private study, scholarship, or research. #
#------------------------------------------------------------------------------##

                               THE VICTORIOUS ONE
                             As recorded by Norther
                   (From the 2002 Album DREAMS OF ENDLESS WAR)

Words and Music by Norther
Arranged by Norther

Gtr I (E A D G B E) - 'Kride'
Gtr II (E A D G B E) - 'Pete'
Gtr III (E A D G B E) - 'Solo'

   Intro
    Q=190
    A5                           Bb5
   4/4
    Gtr I
      PM-----|   PM----|   PM|     PM|   PM|   PM|   PM|
    E S  S S S E S S S S E S S   E S S E S S E S S E S S
||-----------------------------|-------------------------|
||o----------------------------|-------------------------|
||-----------------------------|-------------------------|
||--2----------2---------2-----|-3-----3-----3-----3-----|
||o-0-0--0-0-0-0-0-0-0-0-0-0-0-|-1-1-1-1-1-1-1-1-1-1-1-1-|
||-----------------------------|-------------------------|
|
|   Gtr II
|   E Q.         H               E E   E E   E E   E E
||-----------------------------|-------------------------|
||o----------------------------|-------------------------|
||-----------------------------|-------------------------|
||--2--------------------------|-3-----3-----3-----3-----|
||o-0--------------------------|-1-----1-----1-----1-----|
||-----------------------------|-------------------------|


                              1.                               2.
  A5                           Bb5                             F5  G5  A5
    PM-----|   PM----|   PM|     PM|   PM|     PM|     PM|
  E S  S S S E S S S S E S S   E S S E S S E   S S E   S S     E E E E E E Q
|----------------------------|------------------------------||----------------|
|----------------------------|-----------------------------o||----------------|
|----------------------------|------------------------------||-5---4---2------|
|-2----------2---------2-----|-3-----3-----3-------3--------||-x---x---x------|
|-0-0--0-0-0-0-0-0-0-0-0-0-0-|-1-1-1-1-1-1-1---1-1-1---1-1-o||-3---2---0------|
|----------------------------|------------------------------||----------------|
|
|                                          PM------------|
| E Q.         H               E E   E E   S S S S S S S S     E E E E E E Q
|----------------------------|------------------------------||----------------|
|----------------------------|-----------------------------o||----------------|
|----------------------------|------------------------------||----------------|
|-2--------------------------|-3-----3----------------------||----------------|
|-0--------------------------|-1-----1-----1-1-1-1-1-1-1-1-o||-3---5---7------|
|----------------------------|------------------------------||-1---3---5------|


 Pre-Verse
  A5                                F5
  S S S S S S S S S S S S S S S S   S S S S S S S S S S S S S S S S
|---------------------------------|---------------------------------|
|---------------------------------|---------------------------------|
|-9-9-9-9-9-9-9-9-7-7-7-7-5-5-5-5-|-5-5-5-5-5-5-5-5-4-4-4-4-2-2-2-2-|
|-7-7-7-7-7-7-7-7-7-7-7-7-7-7-7-7-|-3-3-3-3-3-3-3-3-3-3-3-3-3-3-3-3-|
|---------------------------------|---------------------------------|
|---------------------------------|---------------------------------|
|
| S S S S S S S S S S S S S S S S   S S S S S S S S S S S S S S S S
|---------------------------------|---------------------------------|
|---------------------------------|---------------------------------|
|---------------------------------|---------------------------------|
|---------------------------------|---------------------------------|
|-7-7-7-7-7-7-7-7-7-7-7-7-7-7-7-7-|-3-3-3-3-3-3-3-3-3-3-3-3-3-3-3-3-|
|-5-5-5-5-5-5-5-5-5-5-5-5-5-5-5-5-|-1-1-1-1-1-1-1-1-1-1-1-1-1-1-1-1-|


  A5
  S S S S S S S S S S S S S S S S
|---------------------------------|
|---------------------------------|
|-9-9-9-9-9-9-9-9-7-7-7-7-5-5-5-5-|
|-7-7-7-7-7-7-7-7-7-7-7-7-7-7-7-7-|
|---------------------------------|
|---------------------------------|
|
| S S S S S S S S S S S S S S S S
|---------------------------------|
|---------------------------------|
|---------------------------------|
|---------------------------------|
|-7-7-7-7-7-7-7-7-7-7-7-7-7-7-7-7-|
|-5-5-5-5-5-5-5-5-5-5-5-5-5-5-5-5-|


  G
   S  S  S  S  S  S  S  S  S  S  S  S  S  S  S  S
|-------------------------------------------------|
|-------------------------------------------------|
|--9--9--9--9--9--9--9--9-10-10-10-10--9--9--9--9-|
|-10-10-10-10-10-10-10-10-10-10-10-10-10-10-10-10-|
|-------------------------------------------------|
|-------------------------------------------------|
|
|  S  S  S  S  S  S  S  S  S  S  S  S  S  S  S  S
|-------------------------------------------------|
|-------------------------------------------------|
|-------------------------------------------------|
|--5--5--5--5--5--5--5--5--5--5--5--5--5--5--5--5-|
|--x--x--x--x--x--x--x--x--x--x--x--x--x--x--x--x-|
|--3--3--3--3--3--3--3--3--3--3--3--3--3--3--3--3-|


  A5                                F5
  S S S S S S S S S S S S S S S S   S S S S S S S S S S S S S S S S
|---------------------------------|---------------------------------|
|---------------------------------|---------------------------------|
|-9-9-9-9-9-9-9-9-7-7-7-7-5-5-5-5-|-5-5-5-5-5-5-5-5-4-4-4-4-2-2-2-2-|
|-7-7-7-7-7-7-7-7-7-7-7-7-7-7-7-7-|-3-3-3-3-3-3-3-3-3-3-3-3-3-3-3-3-|
|---------------------------------|---------------------------------|
|---------------------------------|---------------------------------|
|
| S S S S S S S S S S S S S S S S   S S S S S S S S S S S S S S S S
|---------------------------------|---------------------------------|
|---------------------------------|---------------------------------|
|---------------------------------|---------------------------------|
|---------------------------------|---------------------------------|
|-7-7-7-7-7-7-7-7-7-7-7-7-7-7-7-7-|-3-3-3-3-3-3-3-3-3-3-3-3-3-3-3-3-|
|-5-5-5-5-5-5-5-5-5-5-5-5-5-5-5-5-|-1-1-1-1-1-1-1-1-1-1-1-1-1-1-1-1-|


  E5
  S S S S S S S S S S S S S S S S
|---------------------------------|
|---------------------------------|
|-4-4-4-4-4-4-4-4-4-4-4-4-4-4-4-4-|
|-2-2-2-2-2-2-2-2-2-2-2-2-2-2-2-2-|
|---------------------------------|
|---------------------------------|
|
| S S S S S S S S S S S S S S S S
|---------------------------------|
|---------------------------------|
|---------------------------------|
|---------------------------------|
|-2-2-2-2-2-2-2-2-2-2-2-2-2-2-2-2-|
|-0-0-0-0-0-0-0-0-0-0-0-0-0-0-0-0-|


                                  E5  A5
   E  E  E  E  E  E  E  E    E  E E E E Q.
|----------------------12-|-17\---------------|
|----------------12-13----|-------------------|
|-------------14----------|-------------------|
|----------14-------------|-----------2-------|
|-12-14-15----------------|-------2---0-------|
|-------------------------|-------0-----------|
|
|  E  E  E  E  E  E  E  E    E  E E E E Q.
|-------------------------|-------------------|
|-------------------------|-10\---------------|
|-------------------------|-------------------|
|--------------7--9-10--9-|-----------2-------|
|-----------7-------------|-------2---0-------|
|--5--7--8----------------|-------0-----------|


   Verse
    Q=180
    A5                                A5
    S S S S S S S S S S S S S S S S   S S S S S S S S S S S S S S S S
||----------------------------------|----------------------------------|
||o---------------------------------|----------------------------------|
||--5-5-5-5-5-5-5-5-7-7-7-7-7-7-7-7-|-9-9-9-9-9-9-9-9-9-9-9-9-9-9-9-9--|
||--7-7-7-7-7-7-7-7-7-7-7-7-7-7-7-7-|-7-7-7-7-7-7-7-7-7-7-7-7-7-7-7-7--|
||o---------------------------------|----------------------------------|
||----------------------------------|----------------------------------|
|
|   S S S S S S S S S S S S S S S S   S S S S S S S S S S S S S S S S
||----------------------------------|----------------------------------|
||o---------------------------------|----------------------------------|
||----------------------------------|----------------------------------|
||----------------------------------|----------------------------------|
||o-7-7-7-7-7-7-7-7-7-7-7-7-7-7-7-7-|-7-7-7-7-7-7-7-7-7-7-7-7-7-7-7-7--|
||--5-5-5-5-5-5-5-5-5-5-5-5-5-5-5-5-|-5-5-5-5-5-5-5-5-5-5-5-5-5-5-5-5--|


  F5                                F5
  S S S S S S S S S S S S S S S S   S S S S S S S S S S S S S S S S
|---------------------------------|---------------------------------|
|---------------------------------|---------------------------------|
|-2-2-2-2-2-2-2-2-4-4-4-4-4-4-4-4-|-5-5-5-5-5-5-5-5-5-5-5-5-5-5-5-5-|
|-3-3-3-3-3-3-3-3-3-3-3-3-3-3-3-3-|-3-3-3-3-3-3-3-3-3-3-3-3-3-3-3-3-|
|---------------------------------|---------------------------------|
|---------------------------------|---------------------------------|
|
| S S S S S S S S S S S S S S S S   S S S S S S S S S S S S S S S S
|---------------------------------|---------------------------------|
|---------------------------------|---------------------------------|
|---------------------------------|---------------------------------|
|---------------------------------|---------------------------------|
|-3-3-3-3-3-3-3-3-3-3-3-3-3-3-3-3-|-3-3-3-3-3-3-3-3-3-3-3-3-3-3-3-3-|
|-1-1-1-1-1-1-1-1-1-1-1-1-1-1-1-1-|-1-1-1-1-1-1-1-1-1-1-1-1-1-1-1-1-|


  C5
   S  S  S  S  S  S  S  S  S  S  S  S  S  S  S  S
|-------------------------------------------------|
|-------------------------------------------------|
|--9--9--9--9--9--9--9--9-10-10-10-10-10-10-10-10-|
|-10-10-10-10-10-10-10-10-10-10-10-10-10-10-10-10-|
|-------------------------------------------------|
|-------------------------------------------------|
|
|  S  S  S  S  S  S  S  S  S  S  S  S  S  S  S  S
|-------------------------------------------------|
|-------------------------------------------------|
|-------------------------------------------------|
|--5--5--5--5--5--5--5--5--5--5--5--5--5--5--5--5-|
|--3--3--3--3--3--3--3--3--3--3--3--3--3--3--3--3-|
|-------------------------------------------------|


   S  S  S  S  S  S  S  S  S  S  S  S  S  S  S  S
|-------------------------------------------------|
|-------------------------------------------------|
|-12-12-12-12--9--9--9--9-10-10-10-10-12-12-12-12-|
|-10-10-10-10-10-10-10-10-10-10-10-10-10-10-10-10-|
|-------------------------------------------------|
|-------------------------------------------------|
|
|  S  S  S  S  S  S  S  S  S  S  S  S  S  S  S  S
|-------------------------------------------------|
|-------------------------------------------------|
|-------------------------------------------------|
|--5--5--5--5--5--5--5--5--5--5--5--5--5--5--5--5-|
|--3--3--3--3--3--3--3--3--3--3--3--3--3--3--3--3-|
|-------------------------------------------------|


  G5                                F5              E5
  S S S S S S S S S S S S S S S S   S S S S S S S S S S S S S S S S
|---------------------------------|----------------------------------||
|---------------------------------|---------------------------------o||
|-7-7-7-7-7-7-7-7-7-7-7-7-7-7-7-7-|-5-5-5-5-5-5-5-5-4-4-4-4-4-4-4-4--||
|-9-9-9-9-9-9-9-9-9-9-9-9-9-9-9-9-|-7-7-7-7-7-7-7-7-6-6-6-6-6-6-6-6--||
|---------------------------------|---------------------------------o||
|---------------------------------|----------------------------------||
|
| S S S S S S S S S S S S S S S S   S S S S S S S S S S S S S S S S
|---------------------------------|----------------------------------||
|---------------------------------|---------------------------------o||
|---------------------------------|----------------------------------||
|---------------------------------|----------------------------------||
|-5-5-5-5-5-5-5-5-5-5-5-5-5-5-5-5-|-3-3-3-3-3-3-3-3-2-2-2-2-2-2-2-2-o||
|-3-3-3-3-3-3-3-3-3-3-3-3-3-3-3-3-|-1-1-1-1-1-1-1-1-0-0-0-0-0-0-0-0--||


  PM----------------------------------------------|
  S S S S S S S S S S S S S S S S   S S S S S S S S H
|---------------------------------|----------------------|
|---------------------------------|----------------------|
|---------------------------------|----------------------|
|---------------------------------|-5-5-5-5-9-9-9-9-7----|
|-0-0-0-0-0-0-0-0-7-7-7-7-7-7-7-7-|----------------------|
|---------------------------------|----------------------|
|
| PM----------------------------------------------|
| S S S S S S S S S S S S S S S S   S S S S S S S S H
|---------------------------------|----------------------|
|---------------------------------|----------------------|
|---------------------------------|----------------------|
|---------------------------------|---------6-6-6-6-7----|
|---------------------------------|-7-7-7-7--------------|
|-5-5-5-5-5-5-5-5-8-8-8-8-8-8-8-8-|----------------------|


 Pre-Chorus
  A5                                F5
  S S S S S S S S S S S S S S S S   S S S S S S S S S S S S S S S S
|---------------------------------|---------------------------------|
|---------------------------------|---------------------------------|
|-9-9-9-9-9-9-9-9-7-7-7-7-5-5-5-5-|-5-5-5-5-5-5-5-5-4-4-4-4-2-2-2-2-|
|-7-7-7-7-7-7-7-7-7-7-7-7-7-7-7-7-|-3-3-3-3-3-3-3-3-3-3-3-3-3-3-3-3-|
|---------------------------------|---------------------------------|
|---------------------------------|---------------------------------|
|
| S S S S S S S S S S S S S S S S   S S S S S S S S S S S S S S S S
|---------------------------------|---------------------------------|
|---------------------------------|---------------------------------|
|---------------------------------|---------------------------------|
|---------------------------------|---------------------------------|
|-7-7-7-7-7-7-7-7-7-7-7-7-7-7-7-7-|-3-3-3-3-3-3-3-3-3-3-3-3-3-3-3-3-|
|-5-5-5-5-5-5-5-5-5-5-5-5-5-5-5-5-|-1-1-1-1-1-1-1-1-1-1-1-1-1-1-1-1-|


  A5
  S S S S S S S S S S S S S S S S
|---------------------------------|
|---------------------------------|
|-9-9-9-9-9-9-9-9-7-7-7-7-5-5-5-5-|
|-7-7-7-7-7-7-7-7-7-7-7-7-7-7-7-7-|
|---------------------------------|
|---------------------------------|
|
| S S S S S S S S S S S S S S S S
|---------------------------------|
|---------------------------------|
|---------------------------------|
|---------------------------------|
|-7-7-7-7-7-7-7-7-7-7-7-7-7-7-7-7-|
|-5-5-5-5-5-5-5-5-5-5-5-5-5-5-5-5-|


  C     A           C     A           C     A
   S  S  S  S  S  S  S  S  S  S  S  S  S  S  S  S
|-------------------------------------------------|
|-------------------------------------------------|
|--9--9--9--9--9--9--9--9-10-10-10-10--9--9--9--9-|
|-10-10-10-10-10-10-10-10-10-10-10-10-10-10-10-10-|
|-------------------------------------------------|
|-------------------------------------------------|
|
|  E     S  S  E     E     S  S  E     E     S  S
|-------------------------------------------------|
|-------------------------------------------------|
|-------------------------------------------------|
|-10-----7--7--7----10-----7--7--7----10-----7--7-|
|--x-----x--x--x-----x-----x--x--x-----x-----x--x-|
|--8-----5--5--5-----8-----5--5--5-----8-----5--5-|


  A5                                F5
  S S S S S S S S S S S S S S S S   S S S S S S S S S S S S S S S S
|---------------------------------|---------------------------------|
|---------------------------------|---------------------------------|
|-9-9-9-9-9-9-9-9-7-7-7-7-5-5-5-5-|-5-5-5-5-5-5-5-5-4-4-4-4-2-2-2-2-|
|-7-7-7-7-7-7-7-7-7-7-7-7-7-7-7-7-|-3-3-3-3-3-3-3-3-3-3-3-3-3-3-3-3-|
|---------------------------------|---------------------------------|
|---------------------------------|---------------------------------|
|
| S S S S S S S S S S S S S S S S   S S S S S S S S S S S S S S S S
|---------------------------------|---------------------------------|
|---------------------------------|---------------------------------|
|---------------------------------|---------------------------------|
|---------------------------------|---------------------------------|
|-7-7-7-7-7-7-7-7-7-7-7-7-7-7-7-7-|-3-3-3-3-3-3-3-3-3-3-3-3-3-3-3-3-|
|-5-5-5-5-5-5-5-5-5-5-5-5-5-5-5-5-|-1-1-1-1-1-1-1-1-1-1-1-1-1-1-1-1-|


  E5
                                    PM------------|
  S S S S S S S S S S S S S S S S   S S S S S S S S H
|---------------------------------|----------------------|
|---------------------------------|----------------------|
|-4-4-4-4-4-4-4-4-4-4-4-4-4-4-4-4-|---------4-4-4-4-2----|
|-2-2-2-2-2-2-2-2-2-2-2-2-2-2-2-2-|-2-2-2-2--------------|
|---------------------------------|----------------------|
|---------------------------------|----------------------|
|
|                                   PM------------|
| S S S S S S S S S S S S S S S S   S S S S S S S S H
|---------------------------------|----------------------|
|---------------------------------|----------------------|
|---------------------------------|----------------------|
|---------------------------------|-2-2-2-2-6-6-6-6-7----|
|-2-2-2-2-2-2-2-2-2-2-2-2-2-2-2-2-|----------------------|
|-0-0-0-0-0-0-0-0-0-0-0-0-0-0-0-0-|----------------------|


   Chorus
    A
    Gtr III
     Q.            Q.            Q          Q        Q        Q        Q
||---------------------------------------|---------------------------------|
||o-13------------12---------------------|----------12-------13------------|
||------------------------------14-------|-14-------------------------14---|
||---------------------------------------|---------------------------------|
||o--------------------------------------|---------------------------------|
||---------------------------------------|---------------------------------|
|
|   Gtrs I, II
|    PM-------------------------------------------------------------|
|    S  S S S S S  S  S S S S S  S S S S    S S S S  S S S S  S S S S  E E
||---------------------------------------|---------------------------------|
||o--------------------------------------|---------------------------------|
||---------------------------------------|---------------------------------|
||---------------------------------------|---------------------------------|
||o--0--0-0-0-0-0--0--0-0-0-0-0--0-0-0-0-|--0-0-0-0--0-0-0-0--0-0-0-0--3s2-|
||---------------------------------------|---------------------------------|


  F                                      F
   Q.            Q.            Q          Q        Q        Q        Q
|-13------------12---------------------|----------12-------13-------------|
|-----------------------------15-------|-15-------------------------15----|
|--------------------------------------|----------------------------------|
|--------------------------------------|----------------------------------|
|--------------------------------------|----------------------------------|
|--------------------------------------|----------------------------------|
|
|  PM-------------------------------------------------------------|
|  S  S S S S S  S  S S S S S  S S S S    S S S S  S S S S  S S S S  E E
|--------------------------------------|----------------------------------|
|--------------------------------------|----------------------------------|
|--------------------------------------|----------------------------------|
|--------------------------------------|----------------------------------|
|--------------------------------------|-----------------------------3s2--|
|--1--1-1-1-1-1--1--1-1-1-1-1--1-1-1-1-|--1-1-1-1--1-1-1-1--1-1-1-1-------|


  G
   Q.            Q.            Q
|---------------12------------13-------|
|-15-----------------------------------|
|--------------------------------------|
|--------------------------------------|
|--------------------------------------|
|--------------------------------------|
|
|  PM-----------------------------------
|  S  S S S S S  S  S S S S S  S S S S
|--------------------------------------|
|--------------------------------------|
|--------------------------------------|
|--------------------------------------|
|--------------------------------------|
|--3--3-3-3-3-3--3--3-3-3-3-3--3-3-3-3-|


                   ~~~
   Q.              Q.            Q
|-13b15-----------13------------12-------|
|----------------------------------------|
|----------------------------------------|
|----------------------------------------|
|----------------------------------------|
|----------------------------------------|
|
|--------------------------------------|
|  S    S S S S S  S  S S S S S  S S S S
|----------------------------------------|
|----------------------------------------|
|----------------------------------------|
|----------------------------------------|
|----------------------------------------|
|--3----3-3-3-3-3--3--3-3-3-3-3--3-3-3-3-|


  1.
  E
   Q.            Q.            Q
|--------------------------------------|
|-15------------13------------12-------|
|--------------------------------------|
|--------------------------------------|
|--------------------------------------|
|--------------------------------------|
|
|  PM-----------------------------------
|  S  S S S S S  S  S S S S S  S S S S
|--------------------------------------|
|--------------------------------------|
|--------------------------------------|
|--------------------------------------|
|--------------------------------------|
|--0--0-0-0-0-0--0--0-0-0-0-0--0-0-0-0-|


  G
   Q.            Q.            Q
|---------------------------------------||
|-13------------12---------------------o||
|-----------------------------14--------||
|---------------------------------------||
|--------------------------------------o||
|---------------------------------------||
|
|------------------------------------|
|  S  S S S S S  S  S S S S S  S S S S
|---------------------------------------||
|--------------------------------------o||
|---------------------------------------||
|---------------------------------------||
|--------------------------------------o||
|--3--3-3-3-3-3--3--3-3-3-3-3--3-3-3-3--||


  2.
  E                                      F5   G5    A5
   Q.            Q.            Q          Q.     Q.     Q
|--------------------------------------|-------------------|
|-15------------13------------12-------|-13-----12---------|
|--------------------------------------|---------------14--|
|--------------------------------------|-------------------|
|--------------------------------------|-------------------|
|--------------------------------------|-------------------|
|
|  PM--------------------------------|
|  S  S S S S S  S  S S S S S  S S S S    Q   Q     H
|--------------------------------------|-------------------|
|--------------------------------------|-------------------|
|--------------------------------------|-------------------|
|--------------------------------------|-------------------|
|--------------------------------------|--3---5-----7------|
|--0--0-0-0-0-0--0--0-0-0-0-0--0-0-0-0-|--1---3-----5------|


 Interlude A
  A5                 E5             A5                 G5
  Gtr III
  E S S E E Q  E E   Q   Q  Q  Q    E S S E E Q  E E   Q  Q  Q  Q
|------------------|--------------|------------------|-------------|
|------------------|--------------|------------------|-------------|
|---------4-5--4---|--------------|---------4-5--4---|-7-----5--4--|
|-7-7-7-7--------7-|-6------6-----|-7-7-7-7--------7-|----5--------|
|------------------|-----7-----7--|------------------|-------------|
|------------------|--------------|------------------|-------------|
|
| Gtrs I, II
| W                  H.        Q    W                  W
|------------------|--------------|------------------|-------------|
|------------------|--------------|------------------|-------------|
|------------------|--------------|------------------|-------------|
|------------------|--------------|------------------|-------------|
|-7----------------|-2---------2--|-7----------------|-5-----------|
|-5----------------|-0---------0--|-5----------------|-3-----------|


  C5                      G5                 A5                 G#5 E5  A5
   E  S  S  E E Q  E  E   Q.    E E E  E E   E S S E E Q  E E   E E E E H
|-----------------------|------------------|------------------|--------------|
|-----------------------|------------------|------------------|--------------|
|-------------7-9--7----|------10-9-7------|---------4-5--4---|-------4------|
|-10-10-10-10--------10-|-9-----------10-9-|-7-7-7-7--------7-|-6---6---7----|
|-----------------------|------------------|------------------|---7----------|
|-----------------------|------------------|------------------|--------------|
|
|  W                      W                  W                  Q   Q   H
|-----------------------|------------------|------------------|--------------|
|-----------------------|------------------|------------------|--------------|
|-----------------------|------------------|------------------|--------------|
|--5--------------------|------------------|------------------|--------------|
|--3--------------------|-5----------------|-7----------------|-6---2---7----|
|-----------------------|-3----------------|-5----------------|-4---0---5----|


   Interlude B
    A                                 E
    E   S S E   E   Q       E   E     Q       Q       Q       Q
||----------------------------------|---------------------------------|
||o---------------------------------|---------------------------------|
||--------------4---5-------4-------|---------------------------------|
||--7---7-7-7-------------------7---|-6---------------6---------------|
||o---------------------------------|---------7---------------7-------|
||----------------------------------|---------------------------------|
|
|   PM-----------------------------------------------------------------
|   S S S S S S S S S S S S S S S S   S S S S S S S S S S S S S S S S
||----------------------------------|---------------------------------|
||o---------------------------------|---------------------------------|
||----------------------------------|---------------------------------|
||----------------------------------|---------------------------------|
||o---------------------------------|---------------------------------|
||--5-5-5-5-5-5-5-5-5-5-5-5-5-5-5-5-|-0-0-0-0-0-0-0-0-0-0-0-0-0-0-0-0-|


  A                                 G
  E   S S E   E   Q       E   E     Q       Q       Q       Q
|---------------------------------|------------------------------------|
|---------------------------------|------------------------------------|
|-------------4---5-------4-------|-7---------------5-------4----------|
|-7---7-7-7-------------------7---|---------5--------------------------|
|---------------------------------|------------------------------------|
|---------------------------------|------------------------------------|
|
|-----------------------------------------------------------------|
| S S S S S S S S S S S S S S S S   S S S S S S S S S S S S S S S S
|---------------------------------|------------------------------------|
|---------------------------------|------------------------------------|
|---------------------------------|------------------------------------|
|---------------------------------|------------------------------------|
|---------------------------------|------------------------------------|
|-5-5-5-5-5-5-5-5-5-5-5-5-5-5-5-5-|-3-3-3-3-3-3-3-3-3-3-3-3-3-3-3-3----|


  C                                      G
   E    S  S  E   E   Q       E    E     Q.            E   E   E    E   E
|--------------------------------------|------------------------------------|
|--------------------------------------|------------------------------------|
|-----------------7---9-------7--------|--------------10---9---7------------|
|-10---10-10-10-------------------10---|-9-------------------------10---9---|
|--------------------------------------|------------------------------------|
|--------------------------------------|------------------------------------|
|
|  PM------------------------------------------------------------------------
|  S S  S  S  S S S S S S S S S S  S S   S  S S S S S  S S S S S S  S S S S
|--------------------------------------|------------------------------------|
|--------------------------------------|------------------------------------|
|--------------------------------------|------------------------------------|
|--------------------------------------|------------------------------------|
|--3-3--3--3--3-3-3-3-3-3-3-3-3-3--3-3-|------------------------------------|
|--------------------------------------|-3--3-3-3-3-3--3-3-3-3-3-3--3-3-3-3-|


  A                                 G#      E       A
  E   S S E   E   Q       E   E     E   E   E   E   H
|---------------------------------|-----------------------||
|---------------------------------|----------------------o||
|-------------4---5-------4-------|-------------4---------||
|-7---7-7-7-------------------7---|-6-------6-------7-----||
|---------------------------------|-----7----------------o||
|---------------------------------|-----------------------||
|
|-------------------------------------------------|
| S S S S S S S S S S S S S S S S   S S S S S S S S H
|---------------------------------|-----------------------||
|---------------------------------|----------------------o||
|---------------------------------|-----------------------||
|---------------------------------|-----------------------||
|---------------------------------|----------------------o||
|-5-5-5-5-5-5-5-5-5-5-5-5-5-5-5-5-|-4-4-4-4-0-0-0-0-5-----||


 Bridge
  A5            C               Dm
  Gtrs I, II
    PM--------|   PM--------|     PM------------------------|
  E S S S S S S E S S S S S S   E S S S S S S S S S S S S S S
|-----------------------------|-------------------------------|
|-----------------------------|-------------------------------|
|-----------------------------|-------------------------------|
|-2-------------2-------------|-3-----------------------------|
|-0-0-0-0-0-0-0-3-3-3-3-3-3-3-|-5-5-5-5-5-5-5-5-5-5-5-5-5-5-5-|
|-----------------------------|-------------------------------|


  G             Bm              C
    PM--------|   PM--------|     PM------------------------|
  E S S S S S S E S S S S S S   E S S S S S S S S S S S S S S
|-----------------------------|-------------------------------|
|-----------------------------|-------------------------------|
|-----------------------------|-------------------------------|
|-----------------------------|-------------------------------|
|-2-------------5-------------|-7-----------------------------|
|-3-3-3-3-3-3-3-7-7-7-7-7-7-7-|-8-8-8-8-8-8-8-8-8-8-8-8-8-8-8-|


  F5            A               Bb
    PM--------|   PM--------|     PM------------------------|
  E S S S S S S E S S S S S S   E S S S S S S S S S S S S S S
|-----------------------------|-------------------------------|
|-----------------------------|-------------------------------|
|-----------------------------|-------------------------------|
|-----------------------------|-------------------------------|
|-3-------------4-------------|-5-----------------------------|
|-1-1-1-1-1-1-1-5-5-5-5-5-5-5-|-6-6-6-6-6-6-6-6-6-6-6-6-6-6-6-|


  E5              G#m               A5 E5 A5
  Gtr I
      PM--------|     PM--------|
  E   S S S S S S E   S S S S S S   q  q  q  Q
|---------------------------------|-------------|
|---------------------------------|-------------|
|---------------------------------|-------------|
|---------------------------------|-7--6--7-----|
|-2---------------2---------------|-------------|
|-0---0-0-0-0-0-0-4---4-4-4-4-4-4-|-------------|
|
| Gtr II
| PM----------------------------|
| S S S S S S S S S S S S S S S S   q  q  q  Q
|---------------------------------|-------------|
|---------------------------------|-------------|
|---------------------------------|-------------|
|---------------------------------|-------------|
|---------------------------------|-7--2--7-----|
|-0-0-0-0-0-0-0-0-4-4-4-4-4-4-4-4-|-5--0--5-----|


   Medley
    A5
    S S S S S S S S S S S S S S S S   S S S S S S S S S S S S S S S S
||----------------------------------|----------------------------------|
||o---------------------------------|----------------------------------|
||--5-5-5-5-5-5-5-5-4-4-4-4-5-5-5-5-|-7-7-7-7-7-7-7-7-7-7-7-7-5-5-5-5--|
||--7-7-7-7-7-7-7-7-7-7-7-7-7-7-7-7-|-7-7-7-7-7-7-7-7-7-7-7-7-7-7-7-7--|
||o---------------------------------|----------------------------------|
||----------------------------------|----------------------------------|
|
|   S S S S S S S S S S S S S S S S   S S S S S S S S S S S S S S S S
||----------------------------------|----------------------------------|
||o---------------------------------|----------------------------------|
||----------------------------------|----------------------------------|
||----------------------------------|----------------------------------|
||o-7-7-7-7-7-7-7-7-7-7-7-7-7-7-7-7-|-7-7-7-7-7-7-7-7-7-7-7-7-7-7-7-7--|
||--5-5-5-5-5-5-5-5-5-5-5-5-5-5-5-5-|-5-5-5-5-5-5-5-5-5-5-5-5-5-5-5-5--|


  1.
  G5                      F5        E5                      G#5
  S S S S S S S S S S S S S S S S   S S S S S S S S S S S S S S S S
|---------------------------------|----------------------------------||
|---------------------------------|---------------------------------o||
|-7-7-7-7-7-7-7-7-7-7-7-7-5-5-5-5-|-4-4-4-4-4-4-4-4---------4-4-4-4--||
|-9-9-9-9-9-9-9-9-9-9-9-9-7-7-7-7-|-6-6-6-6-6-6-6-6-6-6-6-6-6-6-6-6--||
|---------------------------------|-----------------7-7-7-7---------o||
|---------------------------------|----------------------------------||
|
| S S S S S S S S S S S S S S S S   S S S S S S S S S S S S S S S S
|---------------------------------|----------------------------------||
|---------------------------------|---------------------------------o||
|---------------------------------|----------------------------------||
|---------------------------------|----------------------------------||
|-5-5-5-5-5-5-5-5-5-5-5-5-3-3-3-3-|-2-2-2-2-2-2-2-2-2-2-2-2-6-6-6-6-o||
|-3-3-3-3-3-3-3-3-3-3-3-3-1-1-1-1-|-0-0-0-0-0-0-0-0-0-0-0-0-4-4-4-4--||


  2.
  G5                      F5        E5                 G#5
  S S S S S S S S S S S S S S S S   S S S S S S S S q  q
|---------------------------------|-----------------------|
|---------------------------------|-----------------------|
|-7-7-7-7-7-7-7-7-7-7-7-7-5-5-5-5-|-4-4-4-4-4-4-4-4----4--|
|-9-9-9-9-9-9-9-9-9-9-9-9-7-7-7-7-|-6-6-6-6-6-6-6-6-6--6--|
|---------------------------------|-----------------7-----|
|---------------------------------|-----------------------|
|
| S S S S S S S S S S S S S S S S   S S S S S S S S q  q
|---------------------------------|-----------------------|
|---------------------------------|-----------------------|
|---------------------------------|-----------------------|
|---------------------------------|-----------------------|
|-5-5-5-5-5-5-5-5-5-5-5-5-3-3-3-3-|-2-2-2-2-2-2-2-2-2--6--|
|-3-3-3-3-3-3-3-3-3-3-3-3-1-1-1-1-|-0-0-0-0-0-0-0-0-0--4--|


  D5
      PM------------|        PM|        PM|
   E  S  S  S  S  S  S  E    S  S  E    S  S
|--------------------------------------------|
|--------------------------------------------|
|-10-------------------12---------10---------|
|-12-12-12-12-12-12-12-12---12-12-12---12-12-|
|--------------------------------------------|
|--------------------------------------------|
|
|     PM----------------------------------|
|  E  S  S  S  S  S  S  S S  S  S  S S  S  S
|--------------------------------------------|
|--------------------------------------------|
|--------------------------------------------|
|--7-----------------------------------------|
|--5--5--5--5--5--5--5--5-5--5--5--5-5--5--5-|
|--------------------------------------------|


      PM------------|      PM------|
   E  S  S  S  S  S  S  E  S  S  S  S  E
|----------------------------------------|
|----------------------------------------|
|-12-------------------10-------------10-|
|-12-12-12-12-12-12-12-12-12-12-12-12-10-|
|----------------------------------------|
|----------------------------------------|
|
|  E  S  S  Q           E  S  S  Q
|----------------------------------------|
|----------------------------------------|
|--7--------7-----------7--------7-------|
|--7--7--7--7-----------7--7--7--7-------|
|--5--5--5--5-----------5--5--5--5-------|
|----------------------------------------|


  C5                                     B5
      PM--------------------------------------
   E  S  S  S  S  S  S  S  S  S  S  S  S S S
|--------------------------------------------|
|--------------------------------------------|
|-12-----------------------------------------|
|-10-10-10-10-10-10-10-10-10-10-10-10-10-9-9-|
|--------------------------------------------|
|--------------------------------------------|
|
|  E  S  S  E     E     E     S  S  E    E
|--------------------------------------------|
|--------------------------------------------|
|--5--------5-----5-----5-----------5----4---|
|--5--5--5--5-----5-----5-----5--5--5----4---|
|--3--3--3--3-----3-----3-----3--3--3----2---|
|--------------------------------------------|


  A5              Bb5     C5
 ----------------------------------|
  S S S S S S S S S S S S  S  S  S  S
|-------------------------------------|
|-------------------------------------|
|-----------------7--------9----------|
|-7-7-7-7-7-7-7-7-8-8-8-8-10-10-10-10-|
|-------------------------------------|
|-------------------------------------|
|
| E   S S E   E   Q        Q
|-------------------------------------|
|-------------------------------------|
|-2-------2---2-----------------------|
|-2---2-2-2---2---3--------5----------|
|-0---0-0-0---0---1--------3----------|
|-------------------------------------|


  D5
          PM------|                             ~~~
   Q      S  S  S  S  Q      Q      Q     Q     H
|--------------------------------|-----------------------|
|--------------------------------|-----------------------|
|-10-----------------12-----10---|-12---------/12--------|
|-12-----12-12-12-12-12-----12---|-10--------------------|
|--------------------------------|-----------------------|
|--------------------------------|-----------------------|
|
|  E S S  E     E     E S S  E E    E S S E E   E S S Q
|--------------------------------|-----------------------|
|--------------------------------|-----------------------|
|--7------7-----7-----7------7-7-|--7-----7-7---7-----7--|
|--7-7-7--7-----7-----7-7-7--7-7-|--7-7-7-7-7---7-7-7-7--|
|--5-5-5--5-----5-----5-5-5--5-5-|--5-5-5-5-5---5-5-5-5--|
|--------------------------------|-----------------------|


  C5                                        B5
   S  S  S  S  S  S  S  S  S  S  S  S  S  S  S  S
|-------------------15-17-18-17-15----------------|
|----------15-17-18----------------18-17-15-17-18-|
|-14-16-17----------------------------------------|
|-------------------------------------------------|
|-------------------------------------------------|
|-------------------------------------------------|
|
|  E     S  S  E     E     E     S  S  E     E
|-------------------------------------------------|
|-------------------------------------------------|
|--5-----------5-----5-----5-----------5-----4----|
|--5-----5--5--5-----5-----5-----5--5--5-----4----|
|--3-----3--3--3-----3-----3-----3--3--3-----2----|
|-------------------------------------------------|


  A5                      Bb5 C5
   S  S  S  S  S  S  S  S  Q   Q
|-17-15---------------------------|
|-------18-17-15------------------|
|----------------17-16-14-17--16--|
|---------------------------------|
|---------------------------------|
|---------------------------------|
|
|  E     S  S  E     E     Q   Q
|---------------------------------|
|---------------------------------|
|--2-----------2-----2------------|
|--2-----2--2--2-----2-----3---5--|
|--0-----0--0--0-----0-----1---3--|
|---------------------------------|


   Verse
    A5
    S S S S S S S S S S S S S S S S   S S S S S S S S S S S S S S S S
||----------------------------------|----------------------------------|
||o---------------------------------|----------------------------------|
||--5-5-5-5-5-5-5-5-7-7-7-7-7-7-7-7-|-9-9-9-9-9-9-9-9-9-9-9-9-9-9-9-9--|
||--7-7-7-7-7-7-7-7-7-7-7-7-7-7-7-7-|-7-7-7-7-7-7-7-7-7-7-7-7-7-7-7-7--|
||o---------------------------------|----------------------------------|
||----------------------------------|----------------------------------|
|
|   S S S S S S S S S S S S S S S S   S S S S S S S S S S S S S S S S
||----------------------------------|----------------------------------|
||o---------------------------------|----------------------------------|
||----------------------------------|----------------------------------|
||----------------------------------|----------------------------------|
||o-7-7-7-7-7-7-7-7-7-7-7-7-7-7-7-7-|-7-7-7-7-7-7-7-7-7-7-7-7-7-7-7-7--|
||--5-5-5-5-5-5-5-5-5-5-5-5-5-5-5-5-|-5-5-5-5-5-5-5-5-5-5-5-5-5-5-5-5--|

[ Tab from: http://www.guitartabs.cc/tabs/n/norther/victorious_one_tab.html ]
  F5
  S S S S S S S S S S S S S S S S   S S S S S S S S S S S S S S S S
|---------------------------------|---------------------------------|
|---------------------------------|---------------------------------|
|-2-2-2-2-2-2-2-2-4-4-4-4-4-4-4-4-|-5-5-5-5-5-5-5-5-5-5-5-5-5-5-5-5-|
|-3-3-3-3-3-3-3-3-3-3-3-3-3-3-3-3-|-3-3-3-3-3-3-3-3-3-3-3-3-3-3-3-3-|
|---------------------------------|---------------------------------|
|---------------------------------|---------------------------------|
|
| S S S S S S S S S S S S S S S S   S S S S S S S S S S S S S S S S
|---------------------------------|---------------------------------|
|---------------------------------|---------------------------------|
|---------------------------------|---------------------------------|
|---------------------------------|---------------------------------|
|-3-3-3-3-3-3-3-3-3-3-3-3-3-3-3-3-|-3-3-3-3-3-3-3-3-3-3-3-3-3-3-3-3-|
|-1-1-1-1-1-1-1-1-1-1-1-1-1-1-1-1-|-1-1-1-1-1-1-1-1-1-1-1-1-1-1-1-1-|


  C5
   S  S  S  S  S  S  S  S  S  S  S  S  S  S  S  S
|-------------------------------------------------|
|-------------------------------------------------|
|--9--9--9--9--9--9--9--9-10-10-10-10-10-10-10-10-|
|-10-10-10-10-10-10-10-10-10-10-10-10-10-10-10-10-|
|-------------------------------------------------|
|-------------------------------------------------|
|
|  S  S  S  S  S  S  S  S  S  S  S  S  S  S  S  S
|-------------------------------------------------|
|-------------------------------------------------|
|-------------------------------------------------|
|--5--5--5--5--5--5--5--5--5--5--5--5--5--5--5--5-|
|--3--3--3--3--3--3--3--3--3--3--3--3--3--3--3--3-|
|-------------------------------------------------|


   S  S  S  S  S  S  S  S  S  S  S  S  S  S  S  S
|-------------------------------------------------|
|-------------------------------------------------|
|-12-12-12-12--9--9--9--9-10-10-10-10-12-12-12-12-|
|-10-10-10-10-10-10-10-10-10-10-10-10-10-10-10-10-|
|-------------------------------------------------|
|-------------------------------------------------|
|
|  S  S  S  S  S  S  S  S  S  S  S  S  S  S  S  S
|-------------------------------------------------|
|-------------------------------------------------|
|-------------------------------------------------|
|--5--5--5--5--5--5--5--5--5--5--5--5--5--5--5--5-|
|--3--3--3--3--3--3--3--3--3--3--3--3--3--3--3--3-|
|-------------------------------------------------|


  G5                                F5              E5
  S S S S S S S S S S S S S S S S   S S S S S S S S S S S S S S S S
|---------------------------------|----------------------------------||
|---------------------------------|---------------------------------o||
|-7-7-7-7-7-7-7-7-7-7-7-7-7-7-7-7-|-5-5-5-5-5-5-5-5-4-4-4-4-4-4-4-4--||
|-9-9-9-9-9-9-9-9-9-9-9-9-9-9-9-9-|-7-7-7-7-7-7-7-7-6-6-6-6-6-6-6-6--||
|---------------------------------|---------------------------------o||
|---------------------------------|----------------------------------||
|
| S S S S S S S S S S S S S S S S   S S S S S S S S S S S S S S S S
|---------------------------------|----------------------------------||
|---------------------------------|---------------------------------o||
|---------------------------------|----------------------------------||
|---------------------------------|----------------------------------||
|-5-5-5-5-5-5-5-5-5-5-5-5-5-5-5-5-|-3-3-3-3-3-3-3-3-2-2-2-2-2-2-2-2-o||
|-3-3-3-3-3-3-3-3-3-3-3-3-3-3-3-3-|-1-1-1-1-1-1-1-1-0-0-0-0-0-0-0-0--||


   Chorus
    A
    Gtr III
     Q.            Q.            Q          Q        Q        Q        Q
||---------------------------------------|---------------------------------|
||o-13------------12---------------------|----------12-------13------------|
||------------------------------14-------|-14-------------------------14---|
||---------------------------------------|---------------------------------|
||o--------------------------------------|---------------------------------|
||---------------------------------------|---------------------------------|
|
|   Gtrs I, II
|    PM-------------------------------------------------------------|
|    S  S S S S S  S  S S S S S  S S S S    S S S S  S S S S  S S S S  E E
||---------------------------------------|---------------------------------|
||o--------------------------------------|---------------------------------|
||---------------------------------------|---------------------------------|
||---------------------------------------|---------------------------------|
||o--------------------------------------|-----------------------------3s2-|
||---5--5-5-5-5-5--5--5-5-5-5-5--5-5-5-5-|--5-5-5-5--5-5-5-5--5-5-5-5------|


  F
   Q.            Q.            Q          Q        Q        Q        Q
|-13------------12---------------------|----------12-------13-------------|
|-----------------------------15-------|-15-------------------------15----|
|--------------------------------------|----------------------------------|
|--------------------------------------|----------------------------------|
|--------------------------------------|----------------------------------|
|--------------------------------------|----------------------------------|
|
|  PM-------------------------------------------------------------|
|  S  S S S S S  S  S S S S S  S S S S    S S S S  S S S S  S S S S  E E
|--------------------------------------|----------------------------------|
|--------------------------------------|----------------------------------|
|--------------------------------------|----------------------------------|
|--------------------------------------|----------------------------------|
|--------------------------------------|-----------------------------3s2--|
|--1--1-1-1-1-1--1--1-1-1-1-1--1-1-1-1-|--1-1-1-1--1-1-1-1--1-1-1-1-------|


  G
                                                          ~~~
   Q.            Q.            Q          Q.              Q.            Q
|---------------12------------13-------|-13b15-----------13------------12-------|
|-15-----------------------------------|----------------------------------------|
|--------------------------------------|----------------------------------------|
|--------------------------------------|----------------------------------------|
|--------------------------------------|----------------------------------------|
|--------------------------------------|----------------------------------------|
|
|  PM----------------------------------------------------------------------------
|  S  S S S S S  S  S S S S S  S S S S    S    S S S S S  S  S S S S S  S S S S
|--------------------------------------|----------------------------------------|
|--------------------------------------|----------------------------------------|
|--------------------------------------|----------------------------------------|
|--------------------------------------|----------------------------------------|
|--------------------------------------|----------------------------------------|
|--3--3-3-3-3-3--3--3-3-3-3-3--3-3-3-3-|--3----3-3-3-3-3--3--3-3-3-3-3--3-3-3-3-|


 1.
  E                                      G
   Q.            Q.            Q          Q.            Q.            Q
|--------------------------------------|------------------------------------------||
|-15------------13------------12-------|-13------------12------------------------o||
|--------------------------------------|-----------------------------14-----------||
|--------------------------------------|------------------------------------------||
|--------------------------------------|-----------------------------------------o||
|--------------------------------------|------------------------------------------||
|
|---------------------------------------------------------------------------|
|  S  S S S S S  S  S S S S S  S S S S    S  S S S S S  S  S S S S S  S S S S
|--------------------------------------|------------------------------------------||
|--------------------------------------|-----------------------------------------o||
|--------------------------------------|------------------------------------------||
|--------------------------------------|------------------------------------------||
|--------------------------------------|-----------------------------------------o||
|--0--0-0-0-0-0--0--0-0-0-0-0--0-0-0-0-|--3--3-3-3-3-3--3--3-3-3-3-3--3-3-3-3-----||


  2.
  E                                      F5      G5      A5
   Q.            Q.            Q          Q.        Q.       Q
|--------------------------------------|-------------------------|
|-15------------13------------12-------|-13--------12------------|
|--------------------------------------|--------------------14---|
|--------------------------------------|-------------------------|
|--------------------------------------|-------------------------|
|--------------------------------------|-------------------------|
|
|  PM--------------------------------|       PM|    PM-|
|  S  S S S S S  S  S S S S S  S S S S    E  S S E  S  S H
|--------------------------------------|-------------------------|
|--------------------------------------|-------------------------|
|--------------------------------------|-------------------------|
|--------------------------------------|-----------------7-------|
|--------------------------------------|--3------5-------7-------|
|--0--0-0-0-0-0--0--0-0-0-0-0--0-0-0-0-|--1--1-1-3--3--3-5-------|


 Interlude C
  A5
  Gtr I
  PM-------------------------
  e e   S S S S e e S S S S
|---------------------------|
|---------------------------|
|---------------------------|
|---------------------------|
|---------------------------|
|-5-5---5-5-7-7-8-8-7-7-5-5-|
|
| Gtr II
|   PM-----------------------
| E S S E   E   E E S S E
|---------------------------|
|---------------------------|
|---------------------------|
|-2-------------------------|
|-0-0-0-0---2---3-3-2-2-0---|
|---------------------------|


  F5                        C
 -----------------------|     PM--------------------|
  e e S S S S e e S S S S   E E S S S S  e  e S S S S
|-------------------------|---------------------------|
|-------------------------|---------------------------|
|-------------------------|---------------------------|
|-------------------------|---------------------------|
|-8-8-7-7-7-7-5-5---------|-7---7-7-8-8-10-10-8-8-7-7-|
|-----------------8-8-8-8-|-8-8-----------------------|
|
|-----------------------|                PM-------|
| E E S S S S E E S S S S   E E E   E    E  E S S E
|-------------------------|---------------------------|
|-------------------------|---------------------------|
|-------------------------|---------------------------|
|-------------------------|---------------------------|
|-3-3---------3-3---------|-3-x-3---5----7--7-5-5-3---|
|-1-1-1-1-1-1-1-1-1-1-1-1-|---------------------------|


  G5                            C5      B5        A5
   PM-----------------------------------------|     PM--------------------|
   |---3----|    |----3-----|   |--3--| |--3--|
   S  S E   E    S  S   E   E   S S E E S S E E   E e   S S S S e e S S S S
|-----------------------------------------------|---------------------------|
|-----------------------------------------------|---------------------------|
|-----------------------------------------------|---------------------------|
|-10-10-9---7-----------------------------------|---------------------------|
|---------------10-10---8---7---5-5-3-2-3-3-2---|-7-------------------------|
|---------------------------------------------3-|-5-5---5-5-7-7-8-8-7-7-5-5-|
|
|         PM------------------|                     PM------------------|
|  E      S   S  S    S   S   S Q       Q         E S S E   E   E E S S E
|-----------------------------------------------|---------------------------|
|-----------------------------------------------|---------------------------|
|-----------------------------------------------|---------------------------|
|-------------------------------5-------4-------|-2-------------------------|
|--5----------------------------3-------2-------|-0-0-0-0---2---3-3-2-2-0---|
|--3------3---3--3----3---3---3-----------------|---------------------------|


  F5                        C                           F5   G5 A5
  PM------------------------------------------------|
  e e S S S S e e S S S S   e e S S S S  e  e S S S S     Q  Q  q  Q
|-------------------------|---------------------------|----------------|
|-------------------------|---------------------------|----------------|
|-------------------------|---------------------------|----------------|
|-------------------------|---------------------------|-/10--9--7------|
|-8-8-7-7-7-7-5-5---------|-7---7-7-8-8-10-10-8-8-7-7-|----------------|
|-----------------8-8-8-8-|---x-----------------------|----------------|
|
| PM--------------------|       PM------------------|
| E E S S S S E E S S S S   E E S S S S  E  E S S S S     Q  Q  q  Q
|-------------------------|---------------------------|----------------|
|-------------------------|---------------------------|----------------|
|-------------------------|---------------------------|----------------|
|-------------------------|---------------------------|----------------|
|-3-3---------3-3---------|-3-x-3-3-5-5--7--7-5-5-3-3-|---3--5--7------|
|-1-1-1-1-1-1-1-1-1-1-1-1-|---------------------------|---1--3--5------|


 Guitar Solo
      A5                 E5
  Gtr III
    H         Q   Q    H         S  S  S  S  S  S  S  S
|--------------------|----------12-10-------------------|
|-/10--------12--13--|----------------13-12-13-12-10----|
|--------------------|-9-----------------------------12-|
|--------------------|----------------------------------|
|--------------------|----------------------------------|
|--------------------|----------------------------------|
|
| Gtrs I, II
|   PM
|   E E +Q    Q   Q    E E +Q    Q           Q
|--------------------|----------------------------------|
|--------------------|----------------------------------|
|--------------------|----------------------------------|
|--------------------|----------------------------------|
|-----7-(7)---7---7--|---2-(2)---2-----------2----------|
|---5-5-(5)---5---5--|-0-0-(0)---0-----------0----------|


     A5        C5        E5
   H            Q   Q      W
|----------------------|--------|
|-10-----------12--13--|-/17----|
|----------------------|--------|
|----------------------|--------|
|----------------------|--------|
|----------------------|--------|
|
|  PM  PM----|
|  E E S S S S  Q   Q      W
|----------------------|--------|
|----------------------|--------|
|----------------------|--------|
|----------------------|--------|
|----7---------10---7--|---2----|
|--5-5-5-5-5-5--8---5--|---0----|


        A5                             G5
                   |--3--|     |--3--|  |--3--|         |--3--|
   S  S  S  S  S   S  S  S  S  S  S  S  S  S  S  S   S  S  S  S
|----------17-19--17h19p17-15-15h17p15-14h15p14-12h=14h15p14p12-|
|-17-19-20------------------------------------------------------|
|---------------------------------------------------------------|
|---------------------------------------------------------------|
|---------------------------------------------------------------|
|---------------------------------------------------------------|
|
|  PM                          PM
|  E     E    +Q               E        E       +Q
|---------------------------------------------------------------|
|---------------------------------------------------------------|
|---------------------------------------------------------------|
|---------------------------------------------------------------|
|--------7----(7)-----------------------5-------(5)-------------|
|--5-----5----(5)--------------3--------3-------(3)-------------|


           C5                           B5
   |--3--|  |--3--|   |--3---|  |--3--|
   S  S  S  S  S  S   S   S  S  S  S  S  Q   +Q
|--------------------------------------------------|
|-15p13p12----12h13p=12----------------------------|
|----------14------------14-12-12h14h16------------|
|---------------------------------------14--(14)\--|
|--------------------------------------------------|
|--------------------------------------------------|
|
|  PM
|  E        E        +Q                  H
|--------------------------------------------------|
|--------------------------------------------------|
|--------------------------------------------------|
|--------------------------------------------------|
|----------10-------(10)-----------------9---------|
|--8--------8--------(8)-----------------7---------|


  C5         G5        E5         G#5
   S S  S  S S  S S  S  S  S S  S S  S  S S
|-------------------------------------------|
|-----------------9-10-12-10-9--------------|
|------------9-10--------------10-9---------|
|----9-10-12------------------------12-10-9-|
|-12----------------------------------------|
|-------------------------------------------|
|
|  Q         Q          Q         Q
|-------------------------------------------|
|-------------------------------------------|
|-------------------------------------------|
|-------------------------------------------|
|-10---------5----------2---------6---------|
|--8---------3----------0---------4---------|


     A5                  E5
   H         Q   Q     Q    Q    Q   Q
|-------------------|--------------------|
|---------------13--|-12-----------------|
|-----------14------|------13------------|
|-------------------|-----------14-------|
|-12----------------|---------------14---|
|-------------------|--------------------|
|
|  PM
|  E E +Q    Q   Q     E E +Q    Q   Q
|-------------------|--------------------|
|-------------------|--------------------|
|-------------------|--------------------|
|-------------------|--------------------|
|----7-(7)---7---7--|----2-(2)---2---2---|
|--5-5-(5)---5---5--|--0-0-(0)---0---0---|


  A5       C5  A5    E5
   H        Q   Q     Q   Q   Q   Q
|------------------|-----------------|
|--------------13--|-15--------------|
|----------14------|-----16----------|
|------------------|---------17--12--|
|-12---------------|-----------------|
|------------------|-----------------|
|
|  Q  +Q    Q   Q     W
|------------------|-----------------|
|------------------|-----------------|
|------------------|-----------------|
|------------------|-----------------|
|--7--(7)--10---7--|--2--------------|
|--5--(5)---8---5--|--0--------------|


        A5                       G5
   S  S  S  S  S   S  S  S  S  S  S  S  S   S  S  S
|-17-12----12-17--12----12-15-10----10-15--10----10--|
|-------13-----------13----------12-----------12-----|
|----------------------------------------------------|
|----------------------------------------------------|
|----------------------------------------------------|
|----------------------------------------------------|
|
|  PM                       PM
|  E     E    +Q            E     E    +Q
|----------------------------------------------------|
|----------------------------------------------------|
|----------------------------------------------------|
|----------------------------------------------------|
|--------7----(7)-----------------5----(5)-----------|
|--5-----5----(5)-----------3-----3----(3)-----------|


        C5                  B5
   S  S  S  S   S   S  S  S  S  S  S  S  S  S  S S
|-20-15----15--20--15----15-19-16----16-19-16------|
|-------17------------17----------17----------17---|
|--------------------------------------------------|
|--------------------------------------------------|
|--------------------------------------------------|
|--------------------------------------------------|
|
|  PM
|  E     E     +Q            H
|--------------------------------------------------|
|--------------------------------------------------|
|--------------------------------------------------|
|--------------------------------------------------|
|-------10----(10)-----------9---------------------|
|--8-----8-----(8)-----------7---------------------|


                                                              Q=80
  C5          G5          E5          G#5           A5  E5 A5
   S  S  S  S  S  S  S  S  S  S  S  S  S  S  S  S    q  H     E S S
|-15-13-12----13-12-------12----------------------|------------------|
|----------15-------15-13----15-13-12-15-13-12----|------------------|
|----------------------------------------------13-|-14---------------|
|-------------------------------------------------|-------------7-9--|
|-------------------------------------------------|------------------|
|-------------------------------------------------|------------------|
|
|  Q           Q           Q           Q             q  q  q  Q
|-------------------------------------------------|------------------|
|-------------------------------------------------|------------------|
|-------------------------------------------------|------------------|
|-------------------------------------------------|------------------|
|-10-----------5-----------2-----------6----------|--7--2--7---------|
|--8-----------3-----------0-----------4----------|--5--0--5---------|


   Interlude D
    A5       F5                G5        C      BmAm
   4/4
    Gtrs I, II
                                          ~~~~~~
     H         H               Q   +E  E  E +S  S E E
||---------------------------|------------------------|
||o--------------------------|------------------------|
||---------------------------|------------------------|
||---------------------------|---------0--2-(2)-0-----|
||o--7---------3-------------|-5---(5)----3-(3)-2-3-2-|
||---5---------1-------------|-3---(3)------------5-3-|
|
|   Gtr III
|              ~~~~~~~                    ~~~~~~
|    E E E E   E  +S  S E  E   E E  E  E  E +S  S E E
||---------------------------|------------------------|
||o--------------------------|------------------------|
||-------9---/10-(10)-9-7----|---4--7--4-/9-(9)-7-5-4-|
||--10-----7--------------10-|-5----------------------|
||o----7---------------------|------------------------|
||---------------------------|------------------------|


  F5             C5           G5      A5
  H               H            H       H
|---------------------------|----------------------||
|---------------------------|---------------------o||
|---------------------------|----------------------||
|-----------------5---------|----------------------||
|-3---------------3---------|--5-------7----------o||
|-1-------------------------|--3-------5-----------||
|
|                 ~~~          ~~      ~~~
| E E E S +S     +Q   S S E    Q  E E  Q.   S S
|-----5---------------------|----------------------||
|---6---8-(8)b10r(8)--5-----|---------------------o||
|-5---------------------7-5-|-/7--5-4--------------||
|---------------------------|---------/7----7-9----||
|---------------------------|---------------------o||
|---------------------------|----------------------||


 Interlude E
  Q=86
  A        F                 G G BmG C      BmAmG
   TP        TP                       ~~~~~~
   H         H               E E E E  E +S  S E E
|--------------------------|----------------------|
|--------------------------|----------------------|
|--------------------------|----------------------|
|--------------------------|----------2-(2)-0-----|
|--------------------------|---2-5-2--3-(3)-2-3-2-|
|--5---------1-------------|-3-3-7-3----------5-3-|
|
|            ~~~~~~~                  ~~~~~~
|  E E E E   E  +S  S E  E   E E E E  E +S  S E E
|--------------------------|----------------------|
|--------------------------|----------------------|
|------9---/10-(10)-9-7----|---4-7-4-/9-(9)-7-5-4-|
|-10-----7--------------10-|-5--------------------|
|----7---------------------|----------------------|
|--------------------------|----------------------|


  F              C            G       A5
  TP              TP           TP
  H               H            H       H
|---------------------------|--------------------|
|---------------------------|--------------------|
|---------------------------|--------------------|
|---------------------------|--------------------|
|-----------------3---------|----------7---------|
|-1-------------------------|--3-------5---------|
|
|                 ~~~          ~~      ~~~
| E E E S +S     +Q   S S E    Q  E E  Q.   S S
|-----5---------------------|--------------------|
|---6---8-(8)b10r(8)--5-----|--------------------|
|-5---------------------7-5-|-/7--5-4------------|
|---------------------------|---------/7----7-9--|
|---------------------------|--------------------|
|---------------------------|--------------------|


  A        F                 G      BmC  Bm    AmG
   TP        TP              TP     TP TP TP   TPTP
   H         H               Q.     E  E  E    E E
|--------------------------|-----------------------|
|--------------------------|-----------------------|
|--------------------------|-----------------------|
|--------------------------|-----------------------|
|--------------------------|--------5--7--5----3-2-|
|--5---------1-------------|-3------7--8--7----5-3-|
|
|            ~~~~~~~                   ~~~~~~
|  E E E E   E  +S  S E  E   E  E E E  E +S  S E E
|--------------------------|-----------------------|
|--------------------------|-----------------------|
|------9---/10-(10)-9-7----|----4-7-4-/9-(9)-7-5-4-|
|-10-----7--------------10-|-5---------------------|
|----7---------------------|-----------------------|
|--------------------------|-----------------------|


  F              C            G       A5 E5A5
  TP              TP           TP
  H               H            H       E E E E
|---------------------------|------------------|
|---------------------------|------------------|
|---------------------------|------------------|
|---------------------------|------------------|
|-----------------3---------|----------7-2-7---|
|-1-------------------------|--3-------5-0-5---|
|
|                 ~~~          ~~      ~~
| E E E S +S     +Q   S S E    Q  E E  q   Q
|-----5---------------------|------------------|
|---6---8-(8)b10r(8)--5-----|------------------|
|-5---------------------7-5-|-/7--5-4----------|
|---------------------------|---------/7-------|
|---------------------------|------------------|
|---------------------------|------------------|


 Intro Riff
  Q=190
  A5                           Bb5
  Gtr I
    PM-----|   PM----|   PM|     PM|   PM|   PM|   PM|
  E S  S S S E S S S S E S S   E S S E S S E S S E S S
|----------------------------|-------------------------|
|----------------------------|-------------------------|
|----------------------------|-------------------------|
|-2----------2---------2-----|-3-----3-----3-----3-----|
|-0-0--0-0-0-0-0-0-0-0-0-0-0-|-1-1-1-1-1-1-1-1-1-1-1-1-|
|----------------------------|-------------------------|
|
| Gtr II
| E Q.         H               E E   E E   E E   E E
|----------------------------|-------------------------|
|----------------------------|-------------------------|
|----------------------------|-------------------------|
|-2--------------------------|-3-----3-----3-----3-----|
|-0--------------------------|-1-----1-----1-----1-----|
|----------------------------|-------------------------|


  A5                           Bb5
    PM-----|   PM----|   PM|     PM|   PM|     PM|     PM|
  E S  S S S E S S S S E S S   E S S E S S E   S S E   S S
|----------------------------|-----------------------------|
|----------------------------|-----------------------------|
|----------------------------|-----------------------------|
|-2----------2---------2-----|-3-----3-----3-------3-------|
|-0-0--0-0-0-0-0-0-0-0-0-0-0-|-1-1-1-1-1-1-1---1-1-1---1-1-|
|----------------------------|-----------------------------|
|
|                                          PM------------|
| E Q.         H               E E   E E   S S S S S S S S
|----------------------------|-----------------------------|
|----------------------------|-----------------------------|
|----------------------------|-----------------------------|
|-2--------------------------|-3-----3---------------------|
|-0--------------------------|-1-----1-----1-1-1-1-1-1-1-1-|
|----------------------------|-----------------------------|


    A5                                Bb5
        PM----|     PM----|     PM|       PM|     PM|     PM|     PM|
    E   S S S S E   S S S S E   S S   E   S S E   S S E   S S E   S S
||----------------------------------|-----------------------------------||
||o---------------------------------|----------------------------------o||
||----------------------------------|-----------------------------------||
||--2-----------2-----------2-------|-3-------3-------3-------3---------||
||o-0---0-0-0-0-0---0-0-0-0-0---0-0-|-1---1-1-1---1-1-1---1-1-1---1-1--o||
||----------------------------------|-----------------------------------||
|
|     PM--------------------------|     PM--------------------------|
|   S S S S S S S S S S S S S S S S   S S S S S S S S S S S S S S S S
||----------------------------------|-----------------------------------||
||o---------------------------------|----------------------------------o||
||----------------------------------|-----------------------------------||
||--2-------------------------------|-3---------------------------------||
||o-0-0-0-0-0-0-0-0-0-0-0-0-0-0-0-0-|-1-1-1-1-1-1-1-1-1-1-1-1-1-1-1-1--o||
||----------------------------------|-----------------------------------||


  A5                                Bb5
      PM----|     PM----|     PM|       PM|                  ~~~
  E   S S S S E   S S S S E   S S   E   S S E   E   E   S S  Q
|---------------------------------|-----------------------------------|
|---------------------------------|-----------------------------------|
|---------------------------------|-----------------3---3-3-[3]-------|
|-2-----------2-----------2-------|-3-------3-------------------------|
|-0---0-0-0-0-0---0-0-0-0-0---0-0-|-1---1-1-1-------------------------|
|---------------------------------|-----------------------------------|
|
|   PM--------------------------|     PM----------------------------|
| S S S S S S S S S S S S S S S S   S S S S S S S S S S S S  S  S S S
|---------------------------------|-----------------------------------|
|---------------------------------|-----------------------------------|
|---------------------------------|-----------------------------------|
|-2-------------------------------|-3---------------------------------|
|-0-0-0-0-0-0-0-0-0-0-0-0-0-0-0-0-|-1-1-1-1-1-1-1-1-1-1-1-1--1--1-1-1-|
|---------------------------------|-----------------------------------|


  A5    G5      F5  G5  A5
  q  Q  q  Q    E E E E E E Q
|-------------|----------------|
|-------------|----------------|
|-9-----7-----|-5---4----------|
|-7-----5-----|-x---x---2------|
|-------------|-3---2---0------|
|-------------|----------------|
|
| q  Q  q  Q    E E E E E E Q
|-------------|----------------|
|-------------|----------------|
|-------------|----------------|
|-------------|----------------|
|-7-----5-----|-3---5---7------|
|-5-----3-----|-1---3---5------|


 Bridge
  Q=180
  A5            C               Dm
  Gtrs I, II
    PM--------|   PM--------|     PM------------------------|
  E S S S S S S E S S S S S S   E S S S S S S S S S S S S S S
|-----------------------------|-------------------------------|
|-----------------------------|-------------------------------|
|-----------------------------|-------------------------------|
|-2-------------2-------------|-3-----------------------------|
|-0-0-0-0-0-0-0-3-3-3-3-3-3-3-|-5-5-5-5-5-5-5-5-5-5-5-5-5-5-5-|
|-----------------------------|-------------------------------|


  G             Bm              C
    PM--------|   PM--------|     PM------------------------|
  E S S S S S S E S S S S S S   E S S S S S S S S S S S S S S
|-----------------------------|-------------------------------|
|-----------------------------|-------------------------------|
|-----------------------------|-------------------------------|
|-----------------------------|-------------------------------|
|-2-------------5-------------|-7-----------------------------|
|-3-3-3-3-3-3-3-7-7-7-7-7-7-7-|-8-8-8-8-8-8-8-8-8-8-8-8-8-8-8-|


  F5            A               Bb
    PM--------|   PM--------|     PM------------------------|
  E S S S S S S E S S S S S S   E S S S S S S S S S S S S S S
|-----------------------------|-------------------------------|
|-----------------------------|-------------------------------|
|-----------------------------|-------------------------------|
|-----------------------------|-------------------------------|
|-3-------------4-------------|-5-----------------------------|
|-1-1-1-1-1-1-1-5-5-5-5-5-5-5-|-6-6-6-6-6-6-6-6-6-6-6-6-6-6-6-|


  E5              G#m               A5 E5 A5
  Gtr I
      PM--------|     PM--------|
  E   S S S S S S E   S S S S S S   q  q  q  Q
|---------------------------------|-------------|
|---------------------------------|-------------|
|---------------------------------|-------------|
|---------------------------------|-7--6--7-----|
|-2---------------2---------------|-------------|
|-0---0-0-0-0-0-0-4---4-4-4-4-4-4-|-------------|
|
| Gtr II
| PM----------------------------|
| S S S S S S S S S S S S S S S S   q  q  q  Q
|---------------------------------|-------------|
|---------------------------------|-------------|
|---------------------------------|-------------|
|---------------------------------|-------------|
|---------------------------------|-7--2--7-----|
|-0-0-0-0-0-0-0-0-4-4-4-4-4-4-4-4-|-5--0--5-----|


   Out-Chorus
    A
    Gtr III
     Q.            Q.            Q          Q        Q        Q        Q
||---------------------------------------|---------------------------------|
||o-13------------12---------------------|----------12-------13------------|
||------------------------------14-------|-14-------------------------14---|
||---------------------------------------|---------------------------------|
||o--------------------------------------|---------------------------------|
||---------------------------------------|---------------------------------|
|
|   Gtrs I, II
|    PM-------------------------------------------------------------|
|    S  S S S S S  S  S S S S S  S S S S    S S S S  S S S S  S S S S  E E
||---------------------------------------|---------------------------------|
||o--------------------------------------|---------------------------------|
||---------------------------------------|---------------------------------|
||---------------------------------------|---------------------------------|
||o--------------------------------------|-----------------------------3s2-|
||---5--5-5-5-5-5--5--5-5-5-5-5--5-5-5-5-|--5-5-5-5--5-5-5-5--5-5-5-5------|


  F
   Q.            Q.            Q          Q        Q        Q        Q
|-13------------12---------------------|----------12-------13-------------|
|-----------------------------15-------|-15-------------------------15----|
|--------------------------------------|----------------------------------|
|--------------------------------------|----------------------------------|
|--------------------------------------|----------------------------------|
|--------------------------------------|----------------------------------|
|
|  PM-------------------------------------------------------------|
|  S  S S S S S  S  S S S S S  S S S S    S S S S  S S S S  S S S S  E E
|--------------------------------------|----------------------------------|
|--------------------------------------|----------------------------------|
|--------------------------------------|----------------------------------|
|--------------------------------------|----------------------------------|
|--------------------------------------|-----------------------------3s2--|
|--1--1-1-1-1-1--1--1-1-1-1-1--1-1-1-1-|--1-1-1-1--1-1-1-1--1-1-1-1-------|


  G
                                                          ~~~
   Q.            Q.            Q          Q.              Q.            Q
|---------------12------------13-------|-13b15-----------13------------12-------|
|-15-----------------------------------|----------------------------------------|
|--------------------------------------|----------------------------------------|
|--------------------------------------|----------------------------------------|
|--------------------------------------|----------------------------------------|
|--------------------------------------|----------------------------------------|
|
|  PM----------------------------------------------------------------------------
|  S  S S S S S  S  S S S S S  S S S S    S    S S S S S  S  S S S S S  S S S S
|--------------------------------------|----------------------------------------|
|--------------------------------------|----------------------------------------|
|--------------------------------------|----------------------------------------|
|--------------------------------------|----------------------------------------|
|--------------------------------------|----------------------------------------|
|--3--3-3-3-3-3--3--3-3-3-3-3--3-3-3-3-|--3----3-3-3-3-3--3--3-3-3-3-3--3-3-3-3-|


 1.
  E                                      G
   Q.            Q.            Q          Q.            Q.            Q
|--------------------------------------|------------------------------------------||
|-15------------13------------12-------|-13------------12------------------------o||
|--------------------------------------|-----------------------------14-----------||
|--------------------------------------|------------------------------------------||
|--------------------------------------|-----------------------------------------o||
|--------------------------------------|------------------------------------------||
|
|---------------------------------------------------------------------------|
|  S  S S S S S  S  S S S S S  S S S S    S  S S S S S  S  S S S S S  S S S S
|--------------------------------------|------------------------------------------||
|--------------------------------------|-----------------------------------------o||
|--------------------------------------|------------------------------------------||
|--------------------------------------|------------------------------------------||
|--------------------------------------|-----------------------------------------o||
|--0--0-0-0-0-0--0--0-0-0-0-0--0-0-0-0-|--3--3-3-3-3-3--3--3-3-3-3-3--3-3-3-3-----||


  2.
  E                                      F5   G5    A5
   Q.            Q.            Q          Q.     Q.     Q
|--------------------------------------|-------------------|
|-15------------13------------12-------|-13-----12---------|
|--------------------------------------|---------------14--|
|--------------------------------------|-------------------|
|--------------------------------------|-------------------|
|--------------------------------------|-------------------|
|
|  PM--------------------------------|
|  S  S S S S S  S  S S S S S  S S S S    Q   Q     H
|--------------------------------------|-------------------|
|--------------------------------------|-------------------|
|--------------------------------------|-------------------|
|--------------------------------------|-------------------|
|--------------------------------------|--3---5-----7------|
|--0--0-0-0-0-0--0--0-0-0-0-0--0-0-0-0-|--1---3-----5------|


 Outro
  A5              D5                A5              E5
  Gtrs I, II
  S S S S S S S S S S S S S S S S   S S S S S S S S S S S S S S S S
|---------------------------------|---------------------------------|
|---------------------------------|---------------------------------|
|-----------------7-7-7-7-7-7-7-7-|---------------------------------|
|-2-2-2-2-2-2-2-2-7-7-7-7-7-7-7-7-|-2-2-2-2-2-2-2-2-----------------|
|-0-0-0-0-0-0-0-0-5-5-5-5-5-5-5-5-|-0-0-0-0-0-0-0-0-2-2-2-2-2-2-2-2-|
|---------------------------------|-----------------0-0-0-0-0-0-0-0-|


  A5 E5 A5 E5   A5       E5       A5
  Gtr III
                 |--3--|  |--3--|
  W              E  E  E  E  E  E  H
|-------------|-15-13-12-----------------*|
|-------------|----------15-13-12--------*|
|-------------|-------------------14-----*|
|-------------|--------------------------*|
|-------------|--------------------------*|
|-------------|--------------------------*|
|
| q  q  q  q     q        q        q  Q
|-------------|--------------------------*|
|-------------|--------------------------*|
|-------------|--------------------------*|
|-2-----2-----|--2-----------------2-----*|
|-0--2--0--2--|--0--------2--------0-----*|
|----0-----0--|-----------0--------------*|


Duration Legend
---------------
W - whole; H - half; Q - quarter; E - 8th; S - 16th; T - 32nd; X - 64th; a - acciaccatura
+ - note tied to previous; . - note dotted; .. - note double dotted
Uncapitalized letters represent notes that are staccato (1/2 duration)
Irregular groupings are notated above the duration line
Duration letters will always appear directly above the note/fret number it represents the
duration for.  Duration letters with no fret number below them represent rests.  Multi-
bar rests are notated in the form Wxn, where n is the number of bars to rest for.  Low
melody durations appear below the staff

Tablature Legend
----------------
 h   - hammer-on
 p   - pull-off
 b   - bend
 pb  - pre-bend
 r   - bend release (if no number after the r, then release immediately)
 /\  - slide into or out of (from/to "nowhere")
 s   - legato slide
 S   - shift slide
  - natural harmonic
[n]  - artificial harmonic
n(n) - tapped harmonic
 ~   - vibrato
 tr  - trill
 T   - tap
 TP  - trem. picking
 PM  - palm muting
\n/  - tremolo bar dip; n = amount to dip
 \n  - tremolo bar down
 n/  - tremolo bar up
/n\  - tremolo bar inverted dip
 =   - hold bend; also acts as connecting device for hammers/pulls
 <>  - volume swell (louder/softer)
 x   - on rhythm slash represents muted slash
 o   - on rhythm slash represents single note slash

Misc Legend
-----------
 |  - bar
||  - double bar
||o - repeat start
o|| - repeat end
*|  - double bar (ending)
 :  - bar (freetime)
 $  - Segno
 &  - Coda
Tempo markers -  = BPM(8/16=s8/s16), where s8 = swing 8ths, s16 = swing 16ths


***************************************************************************************
* Generated using Power Tab Editor by Brad Larsen - http://powertab.guitarnetwork.org *
***************************************************************************************
Comments